Oops, an error
Loading. Please wait.

How To Fly bass

version 2
version 2

Whole song

  • Based on studio version and on this nice cover : h... Show more
3,438 views 48 this week
2 commentsread comments
1 2 3 4 5
x 9
add to favorites
×
Save as Personal and add changes to this tab that will be seen only by you. Learn more ›
×
You can save this tab as Personal to edit and correct it or add notes. All changes will be seen only by you. Learn more »
launch autoscroll
font size
0
reset
guitar tuner
edit
Autoscroll
slow
fast
+/-
esc
set tempo
stop
Author
Difficulty
Title: How To Fly
Album: Caress Your Soul
Artist: Sticky Fingers
Transcription: Bass Tab
Tuning: Standard E A D G
Tabbed by: Phoenix Ferrari

Main:

G|----6-----------------------------|
D|---6-6----------------------------|
A|-4-----4--7-7-7-------------------|
E|----------------4--4-4-7/-2-2-2---|


Fill 1:

G|----6----------------------------|
D|---6-6----------6--6-6-9-4-4-4---|
A|-4-----4--7-7-7------------------|
E|---------------------------------|

Fill 2: (Play before chorus)

G|----6----------------6--8----|
D|---6-6----------6--9---------|
A|-4-----4--7-7-7------------9-|
E|-----------------------------|

Bridge:

G|-------------------6--8----|
D|--------------6--9---------|
A|-4---2-4-----------------9-|
E|---------0-----------------|

Hope you enjoyed the tab, if so please rate!
Feedback in the comments would be much appreciated!
Suggest correction
Creating personal tab
Creating personal tab
You can edit any tab online and save it as your Personal.

You can edit, replace or remove any tab part or add personal notes – all changes will be seen only by you.

Personal tabs can be accessed anytime from any device, even offline.
Learn more »
comments
print report bad tab
2 comments total.
0 reply
zuletaevan 122 Mar 24, 2016 06:05 PM

stellar tab.

guest
You may want to rate the tab now too:
select rating
Wanna post a correction for this tab? Suggest correction