Oops, an error
Loading. Please wait.

Kiss The Breeze tab

4,717 views 69 this week
no commentswrite comment
1 2 3 4 5
x 3
add to favorites
×
Save as Personal and add changes to this tab that will be seen only by you. Learn more ›
×
You can save this tab as Personal to edit and correct it or add notes. All changes will be seen only by you. Learn more »
launch autoscroll
font size
0
reset
how to read this tab
guitar tuner
edit
Autoscroll
slow
fast
+/-
esc
set tempo
stop
Author
Difficulty
-------------------------------------------------------------------------------
                        Kiss the Breeze - Sticky Fingers
-------------------------------------------------------------------------------
Tabbed by: Brodie
E-mail: bswai10@eq.edu.au

Tuning: Standard

Lead Guitar Intro (Seamus)
e|----------------------------------------------------------5----------------|
B|----3----5---5s7-----------3---5--5s6----------3--5--5s7-----7-------2h3---|
G|---------------------------------------------------------------6-----------|
D|----5----6---6s9-----------4---5--5s7----------5--6--6s9-------------------|
A|---------------------------------------------------------------------------|
E|---------------------------------------------------------------------------|

e|----------------7------7s10---12-13----------------------------------------|
B|-3h5---5s6--------4h5------------------------------------------------------|
G|---------------------------------------------------------------------------|
D|---------------------------------------------------------------------------|
A|---------------------------------------------------------------------------|
E|---------------------------------------------------------------------------|

Verse 1 Chords
e|---10-----------------4------------9------9h12p9--------2------------------|
B|---10-----------------5------------9h10---10------------2h3----------------|
G|---11-----------------4------------9------9-------------2------------------|
D|---11-----------------6------------9h11---11------------2h4----------------|
A|---12-----------------4------------9------9-------------2------------------|
E|---10-----------------x------------x------x-------------2------------------|

Pre-Chorus
e|---5-----------9------------9----------2-----------------------------------|
B|---7-----------9----9-------9h10-------2h3---------------------------------|
G|---5-----------10-----10----9----------2-----------------------------------|
D|---7-----------11-----------9h11-------2h4---------------------------------|
A|---5-----------11-----------9----------2-----------------------------------|
E|---------------9------------9----------2-----------------------------------|

Intro Riff x 1

Chorus:
e|---5--------10-------------------------------------------------------------|
B|---5--------10-------------------------------------------------------------|
G|---6--------11-------------------------------------------------------------|
D|---7--------11-------------------------------------------------------------|
A|---7--------12-------------------------------------------------------------|
E|---5--------10-------------------------------------------------------------|

Interlude 1:
e|----12b13.5----12b13.5-----------------------------------------------------|
B|-----------------------------12--12b14-------------------------------------|
G|---------------------------------------------------------------------------|
D|---------------------------------------------------------------------------|
A|---------------------------------------------------------------------------|
E|---------------------------------------------------------------------------|

Repeat Chord Patterns for Verse 2, Pre-Chorus and Chorus

Interlude/Solo 2: (Play twice) Guitar 1
e|---------14----------------------14---------------------14----------------------|
B|------------14----------------------14---------------------14----------10---14--|
G|-----11--------14--11--------9---------14--9--------9---------14--9-----9---13--|
D|--------------------------------------------------------------------------------|
A|--------------------------------------------------------------------------------|
E|--------------------------------------------------------------------------------|

Repeat Throughout Bridge
e|---------------------------------------------------------------------------|
B|---------------------------------------------------------------------------|
G|----18-18----21--18--21b24-21-18-------18----18b19.5-----------------------|
D|----------19------------------------19----19-------------------------------|
A|---------------------------------------------------------------------------|
E|---------------------------------------------------------------------------|

Guitar 2 (During Solo and Bridge) Repeat Chord Pattern Throughout Bridge
e|---9---9--x-x-x-x-9--9--x-x-x-x-9--9--x-x-x-x-4-x-x-2-x-x------------------|
B|---10--10-x-x-x-x-10-10-x-x-x-x-10-10-x-x-x-x-5-x-x-3-x-x------------------|
G|---9---9--x-x-x-x-9--9--x-x-x-x-9--9--x-x-x-x-4-x-x-2-x-x------------------|
D|---11--11-x-x-x-x-11-11-x-x-x-x-11-11-x-x-x-x-6-x-x-4-x-x------------------|
A|---9---9--x-x-x-x-9--9--x-x-x-x-9--9--x-x-x-x-4-x-x-2-x-x------------------|
E|---------------------------------------------------------------------------|

Lyrics
------
I hit the pavement,
Runnin' a muck and I don't stop
I've been living the same day for the past 6 months
In a daze, because I'm doing what I love
And I won't leave the stage until you motherfuckers jump

I leave my pride inside oblivion, don't take yourself so serious
Life is just a game so you can share all your fears without this
theres peace within this harmony that flows within the core of me
Grows up in my mind, apples out of another's apple tree

So have a laugh, or get blasted out to space

I kiss the breeze and let your rhythm flow out
I kiss the breeze and let your rhythm flow out
I kiss the breeze and let your rhythm flow out
I kiss the breeze and let your rhythm flow out

Mind-altering you stare we're in the clear
Activate yourself, the sounds slip through your fingers
Where it lingers up above the clouds in a maze
You lose control, relaxation, our rotation spinning up round your brain

We're all the same on the level round the way
Within it's carve, within it's quake, within the breeze lies your fate
So share a glass and get blasted off your face

I kiss the breeze and let your rhythm flow out
I kiss the breeze and let your rhythm flow out
I kiss the breeze and let your rhythm flow out
I kiss the breeze and let your rhythm flow out

Grinded by the sun yeah he burns me to the floor
I'm burning cold and getting old, I've seen this place before
And still when your return to face the burden, breaking laws and turning faces,
chasing dreams our shadow's races.

The world is in your hands and I cheers to your success
Follow salute, get in the back we're off to heaven's gates
I put you on the door so don't worry about your fate
We'll trek around time and space, we'll drink champagne to celebrate

The world is in your hands and I cheers to your success
Follow salute, get in the back we're off to heaven's gates
I leave you wanting more and I'm sorry if we're late
Forget yourself, your mind your state cause theres plenty liver out to waste?

Just kiss the breeze and let your rhythm flow out
Just kiss the breeze and let your rhythm flow out
************************************

| /   slide up
| \   slide down
| h   hammer-on
| p   pull-off
| ~   vibrato
| +   harmonic
| x   Mute note
| b   Bend
| pb  Pre-bend
| br  Bend release
| pbr Pre-bend release
| brb Bend release bend

************************************

            
            
Suggest correction
Creating personal tab
Creating personal tab
You can edit any tab online and save it as your Personal.

You can edit, replace or remove any tab part or add personal notes – all changes will be seen only by you.

Personal tabs can be accessed anytime from any device, even offline.
Learn more »
Give kudos to tab author, rate the tab!
1 2 3 4 5
comments
print report bad tab
guest
You may want to rate the tab now too:
select rating
Wanna post a correction for this tab? Suggest correction