Oops, an error
Loading. Please wait.

One By One Tab

148 views 21 this week
no commentswrite comment
1 2 3 4 5
3 more votes to show rating
add to favorites
launch autoscroll
font size
0
reset
how to read this tab
guitar tuner
Autoscroll
slow
fast
+/-
esc
set tempo
stop
Help us to improve Ultimate-Guitar.com Take our survey!
×
This is just a skeleton feel free to improve upon it :)

cheers.


[Intro]


Guitar 1 - Chords - DU*UDU*UUUDU* (listen to song for exact strumming pattern) 

    C#m                                       E
e|---4--4--*--4--4--4--*--4--4--4--4--4--*----7--7--*--7--7--7--*--7--7--7--7--7--*------------------|
B|---5--5--*--5--5--5--*--5--5--5--5--5--*----9--9--*--9--9--9--*--9--9--9--9--9--*------------------|
G|---6--6--*--6--6--6--*--6--6--6--6--6--*----9--9--*--9--9--9--*--9--9--9--9--9--*------------------|
D|---6--6--*--6--6--6--*--6--6--6--6--6--*----9--9--*--9--9--9--*--9--9--9--9--9--*------------------|
A|---4--4--*--4--4--4--*--4--4--4--4--4--*----7--7--*--7--7--7--*--7--7--7--7--7--*------------------|
E|---*--*--*--*--*--*--*--*--*--*--*--*--*----*--*--*--*--*--*--*--*--*--*--*--*--*------------------|

Guitar 2 - Lead

e|---9/12-12-12---11-11-11---7/9-9-9--7-9-7---7---7---7---7---7---7----------|
B|------------------------------------------9---9---9---9---9---9------------|
G|---------------------------------------------------------------------------|
D|---------------------------------------------------------------------------|
A|---------------------------------------------------------------------------|
E|---------------------------------------------------------------------------|

e|---9/12-12-12---11-11-11---7/9-9-9-9/16-16-16-16-12-16-12-16-12-16-12-16-12-16-12-|
B|----------------------------------------------------------------------------------|
G|----------------------------------------------------------------------------------|
D|----------------------------------------------------------------------------------|
A|----------------------------------------------------------------------------------|
E|----------------------------------------------------------------------------------|

The lead guitar has a slight delay and reverb effect on it.

C.B yew



************************************

| /  Slide up

************************************
Suggest correction
Give kudos to tab author, rate the tab!
1 2 3 4 5
comments
print report bad tab
guest
You may want to rate the tab now too:
select rating
Wanna post a correction for this tab? Suggest correction