Oops, an error
Loading. Please wait.

Sad Songs solo tab

571 views 33 this week
2 commentsread comments
1 2 3 4 5
x 3
add to favorites
×
Save as Personal and add changes to this tab that will be seen only by you. Learn more ›
×
You can save this tab as Personal to edit and correct it or add notes. All changes will be seen only by you. Learn more »
launch autoscroll
font size
0
reset
how to read this tab
guitar tuner
edit
Autoscroll
slow
fast
+/-
esc
set tempo
stop
Author
Difficulty
About this tab version
Sticky Fingers - Sad Songs (Solo). Was this info helpful? Yes No
Sticky Fingers - Sad Songs (Solo)

An abolutely incredible song. A relatively simple solo but quite hard to play due to it's speed. It's very
hard to find a live gig where Seamus plays it exactly the same way each time, as he likes to mix it up a bit.
I've tabbed the song from the album, and it should be enough for you to put the building blocks
in place for your own version of the solo. Have fun :) 


"I know your feelings put you under, but we gotta get on..."

[Solo]

e|-17-17-17-17-17-17-17-17-17-14--14-----------------------------------------|
B|------------------------------17--17-14-17-14------------------------------|
G|---------------------------------------------16-14--14~-(14)-(14)-(14)-----|
D|--------------------------------------------------16-----------------------|
A|---------------------------------------------------------------------------|
E|---------------------------------------------------------------------------|

e|---------------------------------------------------------------------------|
B|----------------------17-14~-(14)-(14)-(14)------14--14--14--14--14--------|
G|------14-16-16-14------------------------------16b-16b-16b-16b-16b--16b-14~|
D|-14-16-----------16-14-----------------------------------------------------|
A|---------------------------------------------------------------------------|
E|---------------------------------------------------------------------------|

e|-------------------------------------17-14--14-----------------------------|
B|----------------17-14--14-----------------17--17-14-17-14------------------|
G|-(14)-(14)-(14)------16--16-14-16-14---------------------16-14--14~-(14)---|
D|--------------------------------------------------------------16-----------|
A|---------------------------------------------------------------------------|
E|---------------------------------------------------------------------------|

e|---------------------------------------------------------------------------|
B|--------------------------------17-14-(14)-(14)-(14)-17-14-14-17-14-14-17--|
G|-(14)-(14)------14-16-16-14------------------------------------------------|
D|-----------14-16-----------16-14-------------------------------------------|
A|---------------------------------------------------------------------------|
E|---------------------------------------------------------------------------|

e|---------------------------17b-17b-17b-17b-(17b)---------------------------|
B|-14-14-17-14-14-17-14-17-14------------------------------------------------|
G|---------------------------------------------------------------------------|
D|---------------------------------------------------------------------------|
A|---------------------------------------------------------------------------|
E|---------------------------------------------------------------------------|

"Waiting......"

************************************

|(n) Ghost note
| b   Bend
| ~   Vibrato

************************************

            
            
Suggest correction
Creating personal tab
Creating personal tab
You can edit any tab online and save it as your Personal.

You can edit, replace or remove any tab part or add personal notes – all changes will be seen only by you.

Personal tabs can be accessed anytime from any device, even offline.
Learn more »
Give kudos to tab author, rate the tab!
1 2 3 4 5
comments
print report bad tab
2 comments total.
0 reply
minecraftlucas29 10 Mar 23, 2017 12:47 PM

didn't like this contribution

guest
You may want to rate the tab now too:
select rating
Wanna post a correction for this tab? Suggest correction