Oops, an error
Loading. Please wait.

Ultraviolet Tab

version 1
version 1

Whole song

Interactive

11,073 views 9 this week
no commentswrite comment
1 2 3 4 5
please rate
add to favorites
launch autoscroll
font size
0
reset
how to read this tab
guitar tuner
Tab Pro tools
  • play this tab
  • loop segment
  • change instrument
  • show fretboard
  • metronome
Autoscroll
slow
fast
+/-
esc
set tempo
stop
Contributor
Artist: The Stiff Dylans
Song: Ultraviolet


Rythym Guitar = Guitar 1
Lead Guitar = Guitar 2

Introduction:
(Guitar 1)
E|---------------------------------------------------|
B|---------------------------------------------------|
G|---------------------------------------------------|
D|--//////////----1----6-------1-----------6---------| x2
A|--//////////----1----6-------1-----------6---------|
D|--//////////----1----6-------1-----------6---------|

(Guitar 2)
E|---------------------------------------|
B|---------------------------------------|
G|------7------3-------------------------|
D|--------x6-----x2----------------------| x2
A|------5------1-------------------------|
D|---------------------------------------|

E|----------------------------------------|
B|----------------------------------------|
G|------7-------13------------------------|
D|--------x4-------x4---------------------|
A|------5-------11------------------------|
D|----------------------------------------|

Verse:
(Guitar 1)
E|-------------------------------------|
B|-------------------------------------|
G|--8-----8-----8----------------------|
D|--8--8--8--8--8--8-------------------| x2(blunting)simply blunt each chord
A|--6--8--6--8--6--8-------------------|    several times to fit with the
D|-----8-----8-----8-------------------|    general rythym of the verse.

Chorus:
(Guitar 1)
E|-----------------------------------|
B|-----------------------------------|
G|-----------------------------------|
D|-1---8---5---6---------------------| x2
A|-1---8---5---6---------------------|
D|-1---8---5---6---------------------|

(Sorry havn't worked out the exact number of strums per chord, but this is the right 
just liston to the song to work this out)

(Guitar 2)
E|----------------------------------------------------------|
B|----------------------------------------------------------|
G|-------------8888-10-10-10-10--12-12-12-12-13-13-13-13----|
D|-1---8---5------------------------------------------------|
A|-1---8---5---6666-8- 8- 8- 8---10-10-10-10-11-11-11-11----|
D|-1---8---5------------------------------------------------|

The first three above chords fit in exactly the same as the rythym, but the last bit 
8 onwards is faster, as shown in the song. Applys more treble
              6 to acheive a higher and more powerfull sound when playing.
              6
comments
We did not receive enough feedback on this tab! Please rate:
print report bad tab
1 2 3 4 5
I want to post or [tab]
guest
You may want to rate the tab now too:
select rating
Please do not post tabs as comments. Select "correction" instead!