Oops, an error
Loading. Please wait.

Ultraviolet Tab

version 2
version 2

Whole song

Interactive

9,776 views 6 this week
3 commentsread comments
1 2 3 4 5
accurate
x 3
add to favorites
launch autoscroll
font size
0
reset
how to read this tab
guitar tuner
Autoscroll
slow
fast
+/-
esc
set tempo
stop
Help us to improve Ultimate-Guitar.com Take our survey!
×
Contributor
stratele 1,819
Stiff Dylans
Ultraviolet

Drop D

I certain that this is basicaly 100% correct.
Listen to the track if you get confused with the tabs
Dots under notes are palm mutes

Questions? Comment and don't forget to rate!!



INTRO
(00:00 - 00:22)

Guitar 1

|---------------|------------------------------------|
|---------------|------------------------------------|
|---------------|------------------------------------|
|---------------|-1-1-1-1-1-1-1-1---6-6-6-6-6-6-6-6--|  X4
|---------------|-1-1-1-1-1-1-1-1---6-6-6-6-6-6-6-6--|
|---pickslide---|-1-1-1-1-1-1-1-1---6-6-6-6-6-6-6-6--|

Guitar 2

|---------------|------------------------------------|---------------------------------------|
|--12~----------|------------------------------------|---------------------------------------|
|-feedback/wah?-|----/7-7-7-7----\3-3----------------|----7-7-7-7-7-7/13-13-13-13-13-13-13-13|
|---------------|(1)-/x-x-x-x----\x-x--------X3------|----x-x-x-x-x-x/x--x--x--x--x--x--x--x-|
|---------------|(1)-/5-5-5-5----\1-1----------------|----5-5-5-5-5-5/11-11-11-11-11-11-11-11|
|---------------|(1)---------------------------------|---------------------------------------|
                  ^
                 First only


VERSE
(00:22 - 00:45)

(listen to track for small variations)

Guitar 2

|--------|
|--------|
|--------|
|8-------|
|6---6---|
|----6---|
 .   .

Pre Chorus
(00:45 - 00:56)

Guitar 1

|-----------------------------------------|
|-----------------------------------------|
|-----------------------------------------|
|8-8---8-8-8-8---8-8---6-6---6-6-6-6---6-6|
|8-8---8-8-8-8---8-8---6-6---6-6-6-6---6-6|
|8-8---8-8-8-8---8-8---6-6---6-6-6-6---6-6|

|-----------------------------------------------------|
|-----------------------------------------------------|
|-----------------------------------------------------|
|8-8---8-8-8-8---8-8---6-6-----------------6-6-6-6-6-6|
|8-8---8-8-8-8---8-8---6-6-6-6-6-6-6-6-6-6-6-6-6-6-6-6|
|8-8---8-8-8-8---8-8---6-6-6-6-6-6-6-6-6-6-6-6-6-6-6-6|
                           . . . . . .  

Guitar 2
                
|---------------|------------------------------------|
|----8---9-8-6-8|----8---9-8---11-8---9-8-9-8-6-8----|
|8-8---8--------|8-8---8-----8------8-------------(8)|
|---------------|------------------------------------|
|---------------|------------------------------------|
|---------------|------------------------------------|
       X6


CHORUS
(00:56 - 01:21)

Guitar 1

|-------------|
|-------------|
|-------------|
|1---8---5---6| X2
|1---8---5---6|
|1---8---5---6| 

Guitar 2

|-------------------------------------------------------|
|-------------------------------------------------------|
|8-----------8-8-8-8-10-10-10-10-12-12-12-12-13-13-13-13|
|8---8---5---x-x-x-x-x--x--x--x--x--x--x--x--x--x--x--x-| X2
|6---8---5---6-6-6-6-8--8--8--8--10-10-10-10-11-11-11-11|
|----8---5----------------------------------------------|

 
INTRO
(01:21 - 01:33)


VERSE 2
(01:33 - 01:55)

Guitar 2

|-------|
|-------|
|-------|
|x-x---x| For first half, then same as first verse
|x-x---x|
|x-x---x|


PRE CHORUS
(01:55 - 02:07)


CHORUS
(02:07 - 02:29)


BRIDGE
(02:29 - 02:52)

Guitar 1

|---------|----------------------------------|
|---------|----------------------------------|
|---------|----------------------------------|
|1---3---6|3--3--x-x-3---3---6--------6-6-6-6|
|1---3---6|3--3--x-x-3---3---6--6-6-6-6-6-6-6|
|1---3---6|3--3--x-x-3---3---6--6-6-6-6-6-6-6|
    X3                          . . . 

Guitar 2

|--------------|-----------|
|11b13r11-9----|-----------|
|-----------12~|10--12--13~|
|--------------|-----------|
|--------------|-----------|
|--------------|-----------|
      X3

Guitar 3 (studio)

|---13-11--|
|11--------|
|----------| 
|----------|
|----------|
|----------|

CHORUS (dont play for 2 bars)
(02:52 - 3:14)


CHORUS LEADS X2
(3:14 - end)


|------------------|----------|-----|
|11-11-11--9--8----|----------|----9|
|----------------10|8---10---8|8----|
|------------------|----------|-----|
|------------------|----------|-----|
|------------------|----------|-----|
         X3                    ^>Last time

End on...

|---------------|
|---------------|
|8~-----------8\|
|8~-----------8\|
|6~-----------6\|
|---------------|






Suggest correction What's this?
You can suggest a correction to this tab. Community and Mods will review your correction and vote to approve or reject it.
comments
We did not receive enough feedback on this tab! Please rate:
print report bad tab
1 2 3 4 5
3 comments total.
+1 reply
boomtingbex 12 wrote on January 31 2009, 07:07 am

heyy please can you email
bot parts but in separate files
at rebeccalbaines@gmail.com
thanks :)

0 reply
rmaclure27497 11 wrote on April 24 2010, 07:24 am

sounds perfect (Y) nice one

-1 reply
gergaginflopple 20 wrote on September 6 2010, 03:41 pm

I don't think this song is in Drop D. I'm fairly sure it's a Power chord on the 6th fret of the A string instead of a bar on the first fret, and the low E string notes are right, but could be played on the 6th, 3rd and 4th frets as regular power chords.

I want to post or [tab]
guest
You may want to rate the tab now too:
select rating
Please do not post tabs as comments. Select "correction" instead!