Oops, an error
Loading. Please wait.

Alternative Ulster bass

version 1
version 1

Whole song

Interactive

3,784 views 1 this week
3 commentsread comments
1 2 3 4 5
x 3
add to favorites
×
Save as Personal and add changes to this tab that will be seen only by you. Learn more ›
×
You can save this tab as Personal to edit and correct it or add notes. All changes will be seen only by you. Learn more »
launch autoscroll
font size
0
reset
guitar tuner
edit
Autoscroll
slow
fast
+/-
esc
set tempo
stop
Author
Difficulty
intro is played by guitar

then guitar plays twice

then....


intro

g/---------|
d/---------|
a/-5---2---|
e/---5---3-|    x5


verse

g/------------------------------------|
d/------------------------------------|
a/--5-5-5-5-5-5-5-5-3-3-3-3-3-3-3-3---|
e/------------------------------------|    x2


chorus

g/--------------------------------------------|
d/--------------------------------------------|
a/--5---3-------------------------------------|
e/---------3-3-3-3-3-3-3-3-3-3-3-3------------|    x4

b4 the solo

g/---------------------------------------------------------|
d/---------------------------------------------------------|
a/----------------------------------------------3---3---3--|
e/--7----5----3----7----5----3-----7-----5----3---3---3----|

order:

intro
verse
chorus
intro
verse
chorus
bit b4 the solo
PAUSE!!!!!!!!!
chorus

wow i did my first tab plz tell me what you all think this is what me and my band play 
we get an awsome aproveall for playing it!!

            
            
Suggest correction
Creating personal tab
Creating personal tab
You can edit any tab online and save it as your Personal.

You can edit, replace or remove any tab part or add personal notes – all changes will be seen only by you.

Personal tabs can be accessed anytime from any device, even offline.
Learn more »
Give kudos to tab author, rate the tab!
1 2 3 4 5
comments
print report bad tab
3 comments total.
0 reply
chris bingham 31 Apr 03, 2008 09:51 AM

perfect!!

0 reply
gunners fan 142 Apr 01, 2009 07:27 PM

A wee bit off!

0 reply
greenday-bass 10 Nov 03, 2010 12:23 PM

might be right but certainly doesnt sound it

guest
You may want to rate the tab now too:
select rating
Wanna post a correction for this tab? Suggest correction