Oops, an error
Loading. Please wait.

Gotta Getaway bass

34 views 3 this week
no commentswrite comment
1 2 3 4 5
3 more votes to show rating
add to favorites
×
Save as Personal and add changes to this tab that will be seen only by you. Learn more ›
×
You can save this tab as Personal to edit and correct it or add notes. All changes will be seen only by you. Learn more »
launch autoscroll
font size
0
reset
guitar tuner
edit
Autoscroll
slow
fast
+/-
esc
set tempo
stop
About this tab version
There wasn't a bass tab for this great tune so i added one myself. Enjoy. Was this info helpful? Yes No
[Intro]
G|------------------------------------------------|
D|--------5--5--5-5-7--------5--------------------|
A|--0-5-7------------7--7--7---7-5--5--5-----5--5-|
E|--------------------------------------5-7-------|

G|------------------------------------------------|
D|--------5--5--5-5-7--------5--------------------|
A|--0-5-7------------7--7--7---7-5--5--5-----5--5-|
E|--------------------------------------5-7-------|

G|------------------------------------------------|
D|--------5--5--5-5-7--------5--------------------|
A|--0-5-7------------7--7--7---7-5--5--5-----5--5-|
E|--------------------------------------5-7-------|

      Gotta      Gotta   getaway
G|------------------------------------------------|
D|--------5--5--5-5-7--------5--------------------|
A|--0-5-7------------7--7--7---7-5--5--5-----5--5-|
E|--------------------------------------5-7-------|

      Gotta      Gotta   getaway
G|---------------------------|
D|--5--5-5---------------5---|
A|---------5--5-5--3--3------|
E|---------------------------|

G|---------------------------|
D|--5--5-5---------------5---|
A|---------5--5-5--3--3------|
E|---------------------------|

[Verse]
G|---------------------------|
D|--5--5-5---------------5---|
A|---------5--5-5--3--3------|
E|---------------------------|
You know there ain't no street like home

G|---------------------------|
D|--5--5-5---------------5---|
A|---------5--5-5--3--3------|
E|---------------------------|
To make you feel so all alone

G|---------------------------|
D|--5--5-5---------------5---|
A|---------5--5-5--3--3------|
E|---------------------------|
Too many folk to tell you what to do

G|----------------------------------------------7--7-7-7-7-7|
D|--5--5-5------------------------0-0-5-5-7-7-7-------------|
A|---------5--5-5--7--7-7--3--3-3---------------------------|
E|----------------------------------------------------------|
But they don't speak the same language as you

[Interlude] 
G|---------------------------|
D|-5----5--------------------|
A|-----------5--5----7--5----|
E|---------------------------|
 They want to have me here

G|---------------------------|
D|-5----5--------------------|
A|-----------5--5----7--5----|
E|---------------------------|
 Have me and hold me near

G|--------------------------------------|
D|-5----5-------------------------------|
A|-----------5--5----7--5-5-5-5-5-5-5-5-|
E|--------------------------------------|
 Hold me down, fasten and tie

G|------------------------------|
D|-5----5-----------------------|
A|-----------5--5----7--5-5-5-5-|
E|------------------------------|
But the cars are all flashing me

G|------------------------------|
D|-5----5-----------------------|
A|-----------5--5----7--5-5-5-5-|
E|------------------------------|
Bright lights are passing me

G|-----------------------------7/12\-|
D|-5----5----------------------------|
A|-----------5--5----7--5------------|
E|-----------------------------------|
I feel life passing me by

[Verse]
G|---------------------------|
D|--5--5-5---------------5---|
A|---------5--5-5--3--3------|
E|---------------------------|
The fuss is buzzing in my head

G|---------------------------|
D|--5--5-5---------------5---|
A|---------5--5-5--3--3------|
E|---------------------------|
Father argued and my mother begged

G|---------------------------|
D|--5--5-5---------------5---|
A|---------5--5-5--3--3------|
E|---------------------------|
It's not their words ain't tugging me

G|---------------------------------------------7--7-7-7-7-7|
D|--5--5-5------------------------0-0-5-5-7-7-7------------|
A|---------5--5-5--7--7-7--3--3-3--------------------------|
E|---------------------------------------------------------|
Gotta stretch them, break them, get myself free

[Interlude]
G|---------------------------|
D|-5----5--------------------|
A|-----------5--5----7--5----|
E|---------------------------|
They wanna have me here

G|---------------------------|
D|-5----5--------------------|
A|-----------5--5----7--5----|
E|---------------------------|
Have me and hold me near

G|-------------------------------------7-7-7-7-7-7-7-7-|
D|-5----5-----------------------------7----------------|
A|-----------5--5----7--5-5-5-5-5-5-5------------------|
E|-----------------------------------------------------|
Hold me down, fasten and tie

G|------------------------------|
D|-5----5-----------------------|
A|-----------5--5----7--5-5-5-5-|
E|------------------------------|
But the cars are all flashing me

G|------------------------------|
D|-5----5-----------------------|
A|-----------5--5----7--5-5-5-5-|
E|------------------------------|
Bright lights are passing me

G|------------------------------|
D|-5----5-----------------------|
A|-----------5--5----7--5-5-5-5-|
E|------------------------------|
I feel life passing me by

[Instrumental]
G|----------------------------------------------|
D|------5--5--5-5-7--------5--------------------|
A|0-5-7------------7--7--7---7-5--5--5-----5--5-|
E|-------------------------------------5-7------|

G|----------------------------------------------|
D|------5--5--5-5-7--------5--------------------|
A|0-5-7------------7--7--7---7-5--5--5-----5--5-|
E|-------------------------------------5-7------|

[Outro]
G|-----------------------------------------------|
D|-------5--5--5-5h7--------5--------------------|
A|-0h5h7------------7--7--7---7-5--5--5-----5--5-|
E|--------------------------------------5h7------|
      Gotta      Gotta   getaway

G|-----------------------------------------------|
D|-------5--5--5-5h7--------5--------------------|
A|-0h5h7------------7--7--7---7-5--5--5-----5--5-|
E|--------------------------------------5h7------|
      Gotta      Gotta   getaway

G|-----------------------------------------------|
D|-------5--5--5-5h7--------5--------------------|
A|-0h5h7------------7--7--7---7-5--5--5-----5--5-|
E|--------------------------------------5h7------|
      Gotta      Gotta   getaway

G|-----------------------------------------------|
D|-------5--5--5-5h7--------5--------------------|
A|-0h5h7------------7--7--7---7-5--5--5-----5--5-|
E|--------------------------------------5h7------|
      Gotta      Gotta   getaway

G|------------------------------------------------------------------------|
D|-------5-5-5-5-5-5-5h7-----------5--------------------------------------|
A|-0h5h7----------------7-7-7-7-7-7-7-5-5-5-5-5-5-5-5-5-5-5-5-5-5-5-5-5---|
E|------------------------------------------------------------------------|
      Gotta      Gotta   getaway

G|------------------------------------------------------------------------|
D|-------5-5-5-5-5-5-5h7-----------5--------------------------------------|
A|-0h5h7----------------7-7-7-7-7-7-7-5-5-5-5-5-5-5-5-5-5-5-5-5-5-5-5-5---|
E|------------------------------------------------------------------------|
      Gotta      Gotta   getaway

G|------------------------------------------------------------------------|
D|-------5-5-5-5-5-5-5h7-----------5--------------------------------------|
A|-0h5h7----------------7-7-7-7-7-7-7-5-5-5-5-5-5-5-5-5-5-5-5-5-5-5-5-5---|
E|------------------------------------------------------------------------|
      Gotta      Gotta   getaway  (I'm leaving home)

G|------------------------------------------------------------------------|
D|-------5-5-5-5-5-5-5h7-----------5--------------------------------------|
A|-0h5h7----------------7-7-7-7-7-7-7-5-5-5-5-5-5-5-5-5-5-5-5-5-5-5-5-5---|
E|------------------------------------------------------------------------|
      Gotta      Gotta   getaway  (I'm leaving home)

G|------------------------------------------------------------------------|
D|-------5-5-5-5-5-5-5h7-----------5--------------------------------------|
A|-0h5h7----------------7-7-7-7-7-7-7-5-5-5-5-5-5-5-5-5-5-5-5-5-5-5-5-5---|
E|------------------------------------------------------------------------|
      Gotta      Gotta   getaway (I'm leaving home)

G|------------------------------------------------------------------------|
D|-------5-5-5-5-5-5-5h7-----------5--------------------------------------|
A|-0h5h7----------------7-7-7-7-7-7-7-5-5-5-5-5-5-5-5-5-5-5-5-5-5-5-5-5---|
E|------------------------------------------------------------------------|
      Gotta      Gotta   getaway  (I'm leaving home)

G|------------------------------------------------------------------------|
D|-------5-5-5-5-5-5-5h7-----------5--------------------------------------|
A|-0h5h7----------------7-7-7-7-7-7-7-5-5-5-5-5-5-5-5-5-5-5-5-5-5-5-5-5---|
E|------------------------------------------------------------------------|
      Gotta      Gotta   getaway (I'm leaving home)

G|------------------------------------------------------------------------|
D|-------5-5-5-5-5-5-5h7-----------5--------------------------------------|
A|-0h5h7----------------7-7-7-7-7-7-7-5-5-5-5-5-5-5-5-5-5-5-5-5-5-5-5-5---|
E|------------------------------------------------------------------------|
      Gotta      Gotta   getaway  (I'm leaving home)

G|------------------------------------------------------------------------|
D|-------5-5-5-5-5-5-5h7-----------5--------------------------------------|
A|-0h5h7----------------7-7-7-7-7-7-7-5-5-5-5-5-5-5-5-5-5-5-5-5-5-5-5-5---|
E|------------------------------------------------------------------------|
      Gotta      Gotta   getaway  (I'm leaving home)

G|------------------------------------------------------------------------|
D|-------5-5-5-5-5-5-5h7-----------5--------------------------------------|
A|-0h5h7----------------7-7-7-7-7-7-7-5-5-5-5-5-5-5-5-5-5-5-5-5-5-5-5-5---|
E|------------------------------------------------------------------------|
      Gotta      Gotta   getaway  (I'm leaving home)

G|------------------------------------------------------------------------|
D|-------5-5-5-5-5-5-5h7-----------5--------------------------------------|
A|-0h5h7----------------7-7-7-7-7-7-7-5-5-5-5-5-5-5-5-5-5-5-5-5-5-5-5-5---|
E|------------------------------------------------------------------------|
      Gotta      Gotta   getaway  (I'm leaving home)


***********************************

| /   Slide up
| \   Slide down
| h   Hammer-on
| p   Pull-off

***********************************

            
            
Suggest correction
Creating personal tab
Creating personal tab
You can edit any tab online and save it as your Personal.

You can edit, replace or remove any tab part or add personal notes – all changes will be seen only by you.

Personal tabs can be accessed anytime from any device, even offline.
Learn more »
Give kudos to tab author, rate the tab!
1 2 3 4 5
comments
print report bad tab
guest
You may want to rate the tab now too:
select rating
Wanna post a correction for this tab? Suggest correction