Oops, an error
Loading. Please wait.

Just Fade Away intro tab

290 views 12 this week
1 commentread comment
1 2 3 4 5
2 more votes to show rating
add to favorites
×
Save as Personal and add changes to this tab that will be seen only by you. Learn more ›
×
You can save this tab as Personal to edit and correct it or add notes. All changes will be seen only by you. Learn more »
launch autoscroll
font size
0
reset
how to read this tab
guitar tuner
edit
Autoscroll
slow
fast
+/-
esc
set tempo
stop
Author
Difficulty
-------------------------------------------------------------------------------
                             JUST FADE AWAY - Stiff Little Fingers
-------------------------------------------------------------------------------
Tabbed by:silasf
E-mail:silasfitzgerald5@gmail.com

Tuning: Standard

This is my first tab, a fun song by a great band. The chords version has slightly 
different intro. It is hard
to tell which is right but if you can figure it out please let me know, I have a feeling 
it's somewhere in
between. Regardless this version is easier to play and it sounds ok to me.

e|-----------------------------------------------------------------------------------|
B|---3--------------3-----3----------------------------------------------------------|
G|-0---0-----0----0---0-----0--------------------------------------------------------|
D|-------4p0------------0------------------------------------------------------------|
A|--------------3--------------------------------------------------------------------|
E|-----------------------------------------------------------------------------------|

Play this part once, then start the next one over a G chord on guitar 2 and play the 
riff 5 more times. Then
play these power chords.
e|----------------------------|
B|----------------------------|
G|-5-7-7-5-5-7-7-x-7-7-x-7-7--|
D|-5-7-7-5-5-7-7-x-7-7-x-7-7--|
A|-3-5-5-3-3-5-5-x-5-5-x-5-5--|
E|----------------------------|


************************************

| /   slide up
| \   slide down
| h   hammer-on
| p   pull-off
| ~   vibrato
| +   harmonic
| x   Mute note
| b   Bend
| pb  Pre-bend
| br  Bend release
| pbr Pre-bend release
| brb Bend release bend

************************************
Suggest correction
Creating personal tab
Creating personal tab
You can edit any tab online and save it as your Personal.

You can edit, replace or remove any tab part or add personal notes – all changes will be seen only by you.

Personal tabs can be accessed anytime from any device, even offline.
Learn more »
Give kudos to tab author, rate the tab!
1 2 3 4 5
comments
print report bad tab
1 comment total.
+1 reply
silasf 19 Jan 11, 2016 08:17 PM

Sick tab man!

guest
You may want to rate the tab now too:
select rating
Wanna post a correction for this tab? Suggest correction