Oops, an error
Loading. Please wait.

Nu Far Du Ga Hem Bass Tab

version 1
version 1

Whole song

  • My first Tab. Feel free to change if you find some mistakes.
1,017 views 1 this week
2 commentsread comments
1 2 3 4 5
3 more votes to show rating
add to favorites
launch autoscroll
font size
0
reset
guitar tuner
Autoscroll
slow
fast
+/-
esc
set tempo
stop
Help us to improve Ultimate-Guitar.com Take our survey!
×
Difficulty
novice
Artist: Stiftelsen
Song: Nu fеr du gе hem
Tuning: Standard
Tab by: Leo linder Lodйn

Intro, (also played in the verse)

E -------33---6----3------3-------------66--6----------66------------------|
A ---------------------5-----66----66-5-------5-6--88----------------------|
D -------------------------------------------------------------------------|
G -------------------------------------------------------------------------|


Lеt oss mista all kontroll, folk har дndе ingen koll..

E ---------------------6-6-6-6-6-6-6-6--3-3-3-3-3-3-3-3-----------------------|
A ---6-6-6-6-6-6-6-6---------------------------------------8-8-8-8-8-8-8-8----|
D ----------------------------------------------------------------------------|
G ----------------------------------------------------------------------------|


Mеste hela jдvla natten gе, innan jag fеr doppa veken i din eld (chorus)

E ---3-3-3-3-3-3-3-3-------------------6-6-6-6-6-6-6-6-------------------------|
A --------------------6-6-6-6-6-6-6-6-------------------8-8-8-8-8-8-8-8--------|
D -----------------------------------------------------------------------------|
G -----------------------------------------------------------------------------|

Dessa дr de tre olika delar som i stort sett upprepas genom hela lеten, 
resten kan ni lista ut sjдlva!

Hoppas denna tab hjдlpte er!

Mejla mig vid eventuella frеgor: Leo.linder@live.se
Suggest correction
Give kudos to tab author, rate the tab!
1 2 3 4 5
comments
print report bad tab
2 comments total.
0 reply
Addewallin96 54 Feb 17, 2013 12:58 PM

Du kan börja med att skriva taben åt rätt håll

0 reply
Addewallin96 54 Feb 17, 2013 12:58 PM

Du kan börja med att skriva taben åt rätt håll

guest
You may want to rate the tab now too:
select rating
Wanna post a correction for this tab? Suggest correction