Oops, an error
Loading. Please wait.

Nu Far Du Ga Hem Bass Tab

version 2
version 2

Whole song

  • My first Tab. Feel free to change if you find some mistakes.
16 views 1 this week
no commentswrite comment
1 2 3 4 5
3 more votes to show rating
add to favorites
launch autoscroll
font size
0
reset
guitar tuner
Autoscroll
slow
fast
+/-
esc
set tempo
stop
Help us to improve Ultimate-Guitar.com Take our survey!
×
Author
Difficulty
advanced
About this tab version
My first Tab. Feel free to change if you find some mistakes. Was this info helpful? Yes No
[Intro]

G|--------------------|--------------------|--------------------|--------------------|
D|-----------1-1-0-1-0|-----0-1-0-3--3-----|-----------1-1-0-1-0|-----0-1-0-3--------|
A|----0-1-2-----------|1-1-----------------|----0-1-2-----------|1-1-----------------|
E|3-3-------3---------|-----------------1-1|3-3-------3---------|----------------1---|

[Verse]

G|--------------------|--------------------|--------------------|--------------------|X3
D|-----------1-1-0-1-0|-----0-1-0-3--3-----|-----------1-1-0-1-0|-----0-1-0-3--------|
A|----0-1-2-----------|1-1-----------------|----0-1-2-----------|1-1-----------------|
E|3-3-------3---------|-----------------1-1|3-3-------3---------|----------------1---|


G|--------------------|--------------------|--------------------|--------------------|
D|1-1-1-1-1-1-1-1-1-1-|--------------------|--------------------|--------------------|
A|--------------------|1-1-1-1-1-1-1-1-1-1-|--------------------|--------------------|
E|--------------------|--------------------|3-3-3-3-3-3-3-3-3-3-|1-1-1-1-1-1-1-1-1-1-|


[Chorus]

G|--------------------|--------------------|--------------------|--------------------|
D|----------1--1--1--1|--------------------|----------1--1--1--1|--------------------|
A|--------------------|3--3--3--3----------|--------------------|3--3--3--3----------|
E|3--3--3--3----------|----------1--1--1--1|3--3--3--3----------|----------1--1--1--1|


[Verse]

G|--------------------|--------------------|--------------------|--------------------|X3
D|-----------1-1-0-1-0|-----0-1-0-3--3-----|-----------1-1-0-1-0|-----0-1-0-3--------|
A|----0-1-2-----------|1-1-----------------|----0-1-2-----------|1-1-----------------|
E|3-3-------3---------|-----------------1-1|3-3-------3---------|----------------1---|


G|--------------------|--------------------|--------------------|--------------------|
D|1-1-1-1-1-1-1-1-1-1-|--------------------|--------------------|--------------------|
A|--------------------|1-1-1-1-1-1-1-1-1-1-|--------------------|--------------------|
E|--------------------|--------------------|3-3-3-3-3-3-3-3-3-3-|1-1-1-1-1-1-1-1-1-1-|

[Chorus]X2

G|--------------------|--------------------|--------------------|--------------------|
D|----------1--1--1--1|--------------------|----------1--1--1--1|--------------------|
A|--------------------|3--3--3--3----------|--------------------|3--3--3--3----------|
E|3--3--3--3----------|----------1--1--1--1|3--3--3--3----------|----------1--1--1--1|

Pause play

[Outro]X2

G|--------------------|--------------------|--------------------|--------------------|
D|----------1--1--1--1|--------------------|----------1--1--1--1|--------------------|
A|--------------------|3--3--3--3----------|--------------------|3--3--3--3----------|
E|3--3--3--3----------|----------1--1--1--1|3--3--3--3----------|----------1--1--1--1|

[Chorus]X2

G|--------------------|--------------------|--------------------|--------------------|
D|----------1--1--1--1|--------------------|----------1--1--1--1|--------------------|
A|--------------------|3--3--3--3----------|--------------------|3--3--3--3----------|
E|3--3--3--3----------|----------1--1--1--1|3--3--3--3----------|----------1--1--1--1|

(Finish)

G|--------------------|--------------------|
D|--------------------|--------------------|
A|--------------------|--------------------|
E|3--3--3-3-3--3--3-3-|3--3--3--3--3-------|

Suggest correction
Give kudos to tab author, rate the tab!
1 2 3 4 5
comments
print report bad tab
guest
You may want to rate the tab now too:
select rating
Wanna post a correction for this tab? Suggest correction