Oops, an error
Loading. Please wait.

Ur Balans Bass Tab

37 views 1 this week
no commentswrite comment
1 2 3 4 5
3 more votes to show rating
add to favorites
launch autoscroll
font size
0
reset
guitar tuner
Autoscroll
slow
fast
+/-
esc
set tempo
stop
Help us to improve Ultimate-Guitar.com Take our survey!
×
Author
Difficulty
advanced
[Intro]
  C                 Em                C                 Em
G|---5-5-5-5-5-5---|---9-9-9-9-9-9---|---5-5-5-5-5-5---|---9-9-9-9-9-9---|
D|-----------------|-----------------|-----------------|-----------------|
A|3-3---3-3-----3-3|7-7---7-7-----7-7|3-3---3-3-----3-3|7-7---7-7-----7-7|
E|-----------------|-----------------|-----------------|-----------------|

[Verse]
  C                 Em                C                 Em
G|---5-5-5-5-5-5---|---9-9-9-9-9-9---|---5-5-5-5-5-5---|---9-9-9-9-9-9---|
D|-----------------|-----------------|-----------------|-----------------|
A|3-3---3-3-----3-3|7-7---7-7-----7-7|3-3---3-3-----3-3|7-7---7-7-----7-7|
E|-----------------|-----------------|-----------------|-----------------|
  C                 Em                C                 Em      D
G|---5-5-5-5-5-5---|---9-9-9-9-9-9---|---5-5-5-5-5-5---|---9-9--9-7------|
D|-----------------|-----------------|-----------------|-----------7-5---|
A|3-3---3-3-----3-3|7-7---7-7-----7-7|3-3---3-3-----3-3|7-7---7-------5--|
E|-----------------|-----------------|-----------------|-----------------|

[Chorus]X2
  Em                              C                
G|-------------------------------|-------------------------------|
D|-------------------------------|-------------------------------|
A|-------------------------------|3-3-3-3-3-3-3-3-3-3-3-3-3-3-3-3|
E|0-0-0-0-0-0-0-0-0-0-0-0-0-0-0-0|-------------------------------|

  G                               D
G|-------------------------------|-------------------------------|
D|-------------------------------|-------------------------------|
A|-------------------------------|5-5-5-5-5-5-5-5-5-5-5-5-5-5-5-5|
E|3-3-3-3-3-3-3-3-3-3-3-3-3-3-3-3|-------------------------------|

[Verse]
  C                 Em                C                 Em
G|---5-5-5-5-5-5---|---9-9-9-9-9-9---|---5-5-5-5-5-5---|---9-9-9-9-9-9---|
D|-----------------|-----------------|-----------------|-----------------|
A|3-3---3-3-----3-3|7-7---7-7-----7-7|3-3---3-3-----3-3|7-7---7-7-----7-7|
E|-----------------|-----------------|-----------------|-----------------|
  C                 Em                C                 Em      D
G|---5-5-5-5-5-5---|---9-9-9-9-9-9---|---5-5-5-5-5-5---|---9-9--9-7------|
D|-----------------|-----------------|-----------------|-----------7-5---|
A|3-3---3-3-----3-3|7-7---7-7-----7-7|3-3---3-3-----3-3|7-7---7-------5--|
E|-----------------|-----------------|-----------------|-----------------|

[Chorus]X2
  Em                              C                
G|-------------------------------|-------------------------------|
D|-------------------------------|-------------------------------|
A|-------------------------------|3-3-3-3-3-3-3-3-3-3-3-3-3-3-3-3|
E|0-0-0-0-0-0-0-0-0-0-0-0-0-0-0-0|-------------------------------|

  G                               D
G|-------------------------------|-------------------------------|
D|-------------------------------|-------------------------------|
A|-------------------------------|5-5-5-5-5-5-5-5-5-5-5-5-5-5-5-5|
E|3-3-3-3-3-3-3-3-3-3-3-3-3-3-3-3|-------------------------------|

[Outro]
  C       B       Em               C       B       Em
G|----------------|----------------|----------------|----------------|
D|----------------|----------------|----------------|----------------|
A|3-3-3---2-2-2---|----------------|3-3-3---2-2-2---|----------------|
E|----------------|0-0-0---0-0-0---|----------------|0-0-0---0-0-0---|
  C       B       Em               C       B       Em
G|----------------|----------------|----------------|----------------|
D|----------------|----------------|----------------|----------------|
A|3-3-3---2-2-2---|----------------|3-3-3---2-2-2---|----------------|
E|----------------|0-0-0---0-0-0---|----------------|0000000000000000|

[Chorus Finish]X3
  Em                              C                
G|-------------------------------|-------------------------------|
D|-------------------------------|-------------------------------|
A|-------------------------------|3-3-3-3-3-3-3-3-3-3-3-3-3-3-3-3|
E|0-0-0-0-0-0-0-0-0-0-0-0-0-0-0-0|-------------------------------|

  G                               D
G|-------------------------------|-------------------------------|
D|-------------------------------|-------------------------------|
A|-------------------------------|5-5-5-5-5-5-5-5-5-5-5-5-5-5-5-5|
E|3-3-3-3-3-3-3-3-3-3-3-3-3-3-3-3|-------------------------------|

Suggest correction
Give kudos to tab author, rate the tab!
1 2 3 4 5
comments
print report bad tab
guest
You may want to rate the tab now too:
select rating
Wanna post a correction for this tab? Suggest correction