Oops, an error
Loading. Please wait.

Kelsey tab

version 1
version 1

Whole song

Interactive

1,160 views 1 this week
1 commentread comment
1 2 3 4 5
1 last vote to show rating
add to favorites
×
Save as Personal and add changes to this tab that will be seen only by you. Learn more ›
×
You can save this tab as Personal to edit and correct it or add notes. All changes will be seen only by you. Learn more »
launch autoscroll
font size
0
reset
how to read this tab
guitar tuner
edit
Autoscroll
slow
fast
+/-
esc
set tempo
stop
   Ive listened and played to this song and im 97%   sure that its right. enjoy.
                                       KELSEY
By still remains
Tuning: C G C F A D

PM - Palm mute
<3> - Pinch harmonic + Vibrato
\ - Slide down
/ - Slide up
x - Mute string
~ - Vibrato
\\\\\- pick slide
(2x)- play the single part again
2x- play whole line again

Intro               (2x)                                                2x
|------------------------|------------------------------------------------------|
|------------------------|------------------------------------------------------|
|------3---5---7---------|------10-8-7/8\7-5-7-5-3---10-8-7-5-------------------|
|------3-3-5-5-7---------|------10-8-7/8\7-5-7-5-3-0-10-8-7-5-------------------|
|-0--0-1-3-3-5-5-6\5---0-|-0--0-8--6-5/6\5-3-5-3-1-0-8--6-5-3-5-3-1-0-1-0-------|
|-0--0---3---5-------8-0-|-0--0--------------------0----------------------5-3-2-|


Verse1 gt.1                                                                  2x
|--------------------------------------------------------------------------------|
|--------------------------------------------------------------------------------|
|---------------------------------------3--3-3-3-3-3-----------------------------|
|-0--0-0-0-0-0-0-0-5--3-3-3-3-3-3-------3--3-3-3-3-3-----------33333332225555555-|
|-0--0-0-0-0-0-0-0-5--3-3-3-3-3-3-2-3-5-1--1-1-1-1-1-3-1-0-1-0-3333333222--------|
|-0--0-0-0-0-0-0-0-5--3-3-3-3-3-3-2-3-5------------------------3333333222--------|
Pm               .                . . .


Verse1 gt.2                                                                  2x
|--------------------------------------------------------------------------------|
|--------------------------------------------------------------------------------|
|---------------------------------------3--3-3-3-3-3-----------------------------|
|-0--0-0-0-0-0-0-0-5--3-3-3-3-3-3-------3--3-3-3-3-3-----------33333332228888888-|
|-0--0-0-0-0-0-0-0-5--3-3-3-3-3-3-2-3-5-1--1-1-1-1-1-3-1-0-1-0-3333333222--------|
|-0--0-0-0-0-0-0-0-5--3-3-3-3-3-3-2-3-5------------------------3333333222--------|
Pm               .                . . .


Verse2 (play twice with the replacement on the second time)
|---------------------------------------------------------------------|----------|
|---------------------------------------------------------------------|----------|
|---------------------------------------------------------------------|----------|
|---------------------------------------------------------------------|-2353232--|
|-0-------0--------530-0------0-------235-0------0---------5555553333-|--------5-|
|-0-0000000---00000530-0-000000---0000235-0-000000-000006535555553333-|----------|
Pm  ......     .....

Replacement
|------|
|------|
|-5*b7-|
|------|
|------|


Heavy part                                2x  1st time
|--------------------------------------------|----------|----------|
|--------------------------------------------|----------|----------|
|--------------------------------------------|-55555555-|----------|
|-0----8--7--5-3----5--3--7-3----3---3-2---2-|-55555555-|-11111111-|
|-0----8--7--5-3----5--3--7-3----3---3-2---2-|-33333333-|-11111111-|
|-0----8--7--5-3----5--3--7-3----3---3-2---2-|----------|-11111111-|


Fill 1 gt.1
|---|
|---|
|---|
|-0-|
|-0-|
|-0-|

Fill 1 gt.2
|------|
|------|
|------|
|-0\\\-|
|-0\\\-|
|-0\\\-|

Verse 1

Fill 2
|--------------------------|
|--------------------------|
|--------------------------|
|-0--------------------\\\-|
|-0--------------------\\\-|
|-0--------------------\\\-|


chorus  (second time palm mute)               2x
|--------------------------------------------------|
|--------------------------------------------------|
|-555555333333-------------------------------------|
|-555555333333000000000005555555333333330000000000-|
|-333333111111000000000005555555333333330000000000-|
|-------------000000000005555555333333330000000000-|


Fill 3
|-------|
|-------|
|-9--10-|
|-x--x--|
|-7--8--|
|-------|

Heavy part

Fill 1

Let gt.1 make short feedback

Bridge
|-----------------------------------------------------------------------------|
|-----------------------------------------------------------------------------|
|-----------------------------------------------------------------------------|
|-----------------------------------------------------------------------------|
|-000--000-000-000-000---000-000-000-000---000-000-000-000---000-000-000-0001-|
|-000--000-000-000-000---000-000-000-000---000-000-000-000---000-000-000-0001-|
Pm...  ... ... ... ...   ... ... ... ...   ... ... ... ...   ... ... ... ....

|------------------------------------------------------------------|
|------------------------------------------------------------------|
|------------------------------------------------------------------|
|------------------------------------------------------------------|
|-111-111-111-111---111-111-111-0---000-000-000-000---000-000-0000-|
|-111-111-111-111---111-111-111-0---000-000-000-000---000-000-0000-|
Pm... ... ... ...   ... ... ... .   ... ... ... ...   ... ... ....

Outro gt.1
|-------------------------------------------|
|-------------------------------------------|
|-------------------------------------------|
|-----------------------------3---5---7/8\5-|
|------1---3---5---------0--0-1-3-3-5-5/6\3-|
|-0--0---3---5---3h5p3-2-0--0---3---5-------|

End on the first part of the intro

            
            
Suggest correction
Creating personal tab
Creating personal tab
You can edit any tab online and save it as your Personal.

You can edit, replace or remove any tab part or add personal notes – all changes will be seen only by you.

Personal tabs can be accessed anytime from any device, even offline.
Learn more »
Give kudos to tab author, rate the tab!
1 2 3 4 5
comments
print report bad tab
1 comment total.
0 reply
Tias 181 Dec 27, 2006 11:06 AM

looks good to me,

greetz Tias

guest
You may want to rate the tab now too:
select rating
Wanna post a correction for this tab? Suggest correction