Oops, an error
Loading. Please wait.

To Live And Die By Fire tab

version 1
version 1

Whole song

Interactive

1,894 views 1 this week
3 commentsread comments
1 2 3 4 5
x 3
add to favorites
×
Save as Personal and add changes to this tab that will be seen only by you. Learn more ›
×
You can save this tab as Personal to edit and correct it or add notes. All changes will be seen only by you. Learn more »
launch autoscroll
font size
0
reset
how to read this tab
guitar tuner
edit
Autoscroll
slow
fast
+/-
esc
set tempo
stop
SONG  : To Live And Die By Fire
ARTIST: Still Remains
ALBUM : Of Love and Lunacy


All Guitars Dropped C


 Guitar One
|-------------------|-------------------------|--------------------------|
|-------------------|-------------------------|--------------------------|
|----------------7--|----7--7--7--7--7--7--7--|--7--7--7--7--5--7----10--|
|-------------------|-------------------------|--------------------------|
|----------------5--|----5--5--5--5--5--5--5--|--5--5--5--5--3--5----8---|
|----------------0--|----0--0--0--0--0--0--0--|--0--0--0--0--0--0----0---|
|
|
| Guitar Two
|-------------------|-------------------------|--------------------------|
|-------------------|-------------------------|--------------------------|
|----------------7--|----7--7--7--7--7--7--7--|--7--7--7--7--5--7----10--|
|-------------------|-------------------------|--------------------------|
|----------------5--|----5--5--5--5--5--5--5--|--5--5--5--5--3--5----8---|
|----------------0--|----0--0--0--0--0--0--0--|--0--0--0--0--0--0----0---|


                                                                
|--------------------------------|------------------------------|
|--------------------------------|------------------------------|
|----10--10--10--10--10--10--10--|--10--10--10--10--9--10-------|
|--------------------------------|---------------------------7--|
|----8---8---8---8---8---8---8---|--8---8---8---8---7--8-----7--|
|----0---0---0---0---0---0---0---|--0---0---0---0---0--0-----7--|
|
|
|
|--------------------------------|------------------------------|
|--------------------------------|------------------------------|
|----10--10--10--10--10--10--10--|--10--10--10--10--9--10-------|
|--------------------------------|---------------------------7--|
|----8---8---8---8---8---8---8---|--8---8---8---8---7--8-----7--|
|----0---0---0---0---0---0---0---|--0---0---0---0---0--0-----7--|


                                                    
|-------------------------|-------------------------|
|-------------------------|-------------------------|
|-------------------------|-------------------------|
|----7--7--7--7--7--7--7--|--7--7--7--7--7--7-------|
|----7--7--7--7--7--7--7--|--7--7--7--7--7--7-------|
|----7--7--7--7--7--7--7--|--7--7--7--7--7--7----8--|
|
|
|
|-------------------------|-------------------------|
|-------------------------|-------------------------|
|-------------------------|-------------------------|
|----7--7--7--7--7--7--7--|--7--7--7--7--7--7-------|
|----7--7--7--7--7--7--7--|--7--7--7--7--7--7-------|
|----7--7--7--7--7--7--7--|--7--7--7--7--7--7----8--|


                                                           
|----------------------------|-----------------------------|
|----------------------------|-----------------------------|
|----------------------------|--------------------------7--|
|---------------------12-----|--10-------------------------|
|-------12-----10------------|---------12-----13p-12----5--|
|----8------8------8------8--|------8------8------------0--|
|
|
|
|----------------------------|-----------------------------|
|----------------------------|-----------------------------|
|----------------------------|--------------------------7--|
|---------------------12-----|--10-------------------------|
|-------12-----10------------|---------12-----13p-12----5--|
|----8------8------8------8--|------8------8------------0--|



                                                     
|-------------------------|--------------------------|
|-------------------------|--------------------------|
|----7--7--7--7--7--7--7--|--7--7--7--7--5--7----10--|
|-------------------------|--------------------------|
|----5--5--5--5--5--5--5--|--5--5--5--5--3--5----8---|
|----0--0--0--0--0--0--0--|--0--0--0--0--0--0----0---|
|
|
|
|-------------------------|---------------------------|
|-------------------------|---------------------------|
|----7--7--7--7--7--7--7--|--7--7--7--7--9--10----10--|
|-------------------------|---------------------------|
|----5--5--5--5--5--5--5--|--5--5--5--5--7--8-----8---|
|----0--0--0--0--0--0--0--|--0--0--0--0--0--0-----0---|



                                                                
|--------------------------------|------------------------------|
|--------------------------------|------------------------------|
|----10--10--10--10--10--10--10--|--10--10--10--10--9--10-------|
|--------------------------------|---------------------------7--|
|----8---8---8---8---8---8---8---|--8---8---8---8---7--8-----7--|
|----0---0---0---0---0---0---0---|--0---0---0---0---0--0-----7--|
|
|
|
|--------------------------------|------------------------------|
|--------------------------------|------------------------------|
|----10--10--10--10--10--10--10--|--10--10--10--10--9--10-------|
|--------------------------------|---------------------------7--|
|----8---8---8---8---8---8---8---|--8---8---8---8---7--8-----7--|
|----0---0---0---0---0---0---0---|--0---0---0---0---0--0-----7--|


                                                    
|-------------------------|-------------------------|
|-------------------------|-------------------------|
|-------------------------|-------------------------|
|----7--7--7--7--7--7--7--|--7--7--7--7--7--7-------|
|----7--7--7--7--7--7--7--|--7--7--7--7--7--7-------|
|----7--7--7--7--7--7--7--|--7--7--7--7--7--7----8--|
|
|
|
|-------------------------|-------------------------|
|-------------------------|-------------------------|
|-------------------------|-------------------------|
|----7--7--7--7--7--7--7--|--7--7--7--7--7--7-------|
|----7--7--7--7--7--7--7--|--7--7--7--7--7--7-------|
|----7--7--7--7--7--7--7--|--7--7--7--7--7--7----8--|


                                                           
|----------------------------|-----------------------------|
|----------------------------|-----------------------------|
|----------------------------|-----------------------------|
|---------------------12-----|--10-------------------------|
|-------12-----10------------|---------12-----13p-12----0--|
|----8------8------8------8--|------8------8------------0--|
|
|
|
|---------------------------|----------------------------|
|---------------------------|----------------------------|
|--------------------10-----|--9-------------------------|
|-------10-----8------------|--------10-----12p-10-------|
|---------------------------|-------------------------0--|
|----8------8-----8------8--|-----8------8------------0--|


                                                                                
|-------------------------|---------------------------|-------------------------|
|-------------------------|---------------------------|-------------------------|
|-------------------------|---------------------------|-------------------------|
|-------------------------|---------------------------|-------------------------|
|-------7p-5-----7h-8-----|--10-----8-----7--5-----0--|-------7p-5-----7h-8-----|
|----0--------0--------8--|------8-----8--------8--0--|----0--------0--------8--|
|
|
|
|-------------------------|--------------------------|-------------------------|
|-------------------------|--------------------------|-------------------------|
|-------------------------|--------------------------|-------------------------|
|----------------5--7-----|--8-----7-----5--3--------|----------------5--7-----|
|-------7--5--------------|-----------------------0--|-------7p-5--------------|
|----0--------0--------8--|-----8-----8--------8--0--|----0--------0--------8--|



                                                         
|------------------------------|-------------------------|
|------------------------------|-------------------------|
|------------------------------|-------------------------|
|------------------------------|-------------------------|
|--10-----12-----13--12--8--0--|-------7p-5-----7h-8-----|
|------8------8-------------0--|----0--------0--------8--|
|
|
|
|-----------------------------|-------------------------|
|-----------------------------|-------------------------|
|-----------------------------|-------------------------|
|--8-----10-----12--10--7-----|----------------5--7-----|
|--------------------------0--|-------7p-5--------------|
|-----8------8-------------0--|----0--------0--------8--|



                                                                               
|---------------------------|--------------------------|-----------------------|
|---------------------------|--------------------------|-----------------------|
|---------------------------|--------------------------|-----------------------|
|------------------------8--|----8--x--10----10--x--5--|----5--x--3----3b---0--|
|--10-----8-----7--5--x--8--|----8--x--10----10--x--5--|----5--x--3---------0--|
|------8-----8--------x--8--|----8--x--10----10--x--5--|----5--x--3---------0--|
|
|
|
|--------------------------|-------------------------|-----------------------|
|--------------------------|-------------------------|-----------------------|
|-----------------------7--|----7-----9----9-----10--|----10-----9-----------|
|--8-----7-----5-----------|-------x----------x------|--------x-----------0--|
|-----------------8--x--5--|----5--x--7----7--x--8---|----8---x--7--------0--|
|-----8-----8--------x-----|-------x----------x------|--------x-----------0--|


                                                                                
|-------------------------|---------------------------|-------------------------|
|-------------------------|---------------------------|-------------------------|
|-------------------------|---------------------------|-------------------------|
|-------------------------|---------------------------|-------------------------|
|-------7p-5-----7h-8-----|--10-----8-----7--5-----0--|-------7p-5-----7h-8-----|
|----0--------0--------8--|------8-----8--------8--0--|----0--------0--------8--|
|
|
|
|-------------------------|--------------------------|-------------------------|
|-------------------------|--------------------------|-------------------------|
|-------------------------|--------------------------|-------------------------|
|----------------5--7-----|--8-----7-----5--3--------|----------------5--7-----|
|-------7p-5--------------|-----------------------0--|-------7p-5--------------|
|----0--------0--------8--|-----8-----8--------8--0--|----0--------0--------8--|


                                                         
|------------------------------|-------------------------|
|------------------------------|-------------------------|
|------------------------------|-------------------------|
|------------------------------|-------------------------|
|--10-----12-----13--12--8--0--|-------7p-5-----7h-8-----|
|------8------8-------------0--|----0--------0--------8--|
|
|
|
|-----------------------------|-------------------------|
|-----------------------------|-------------------------|
|-----------------------------|-------------------------|
|--8-----10-----12--10--7-----|----------------5--7-----|
|--------------------------0--|-------7p-5--------------|
|-----8------8-------------0--|----0--------0--------8--|


                                                                                
|---------------------------|--------------------------|------------------------|
|---------------------------|--------------------------|------------------------|
|---------------------------|--------------------------|------------------------|
|------------------------8--|----8--x--10----10--x--5--|----5--x--3----3--3--0--|
|--10-----8-----7--5--x--8--|----8--x--10----10--x--5--|----5--x--3----3--3--0--|
|------8-----8--------x--8--|----8--x--10----10--x--5--|----5--x--3----3--3--0--|
|
|
|
|--------------------------|-------------------------|-------------------------|
|--------------------------|-------------------------|-------------------------|
|-----------------------7--|----7-----9----9-----10--|----10-----9----9--9-----|
|--8-----7-----5--3--------|-------x----------x------|--------x-------------0--|
|--------------------x--5--|----5--x--7----7--x--8---|----8---x--7----7--7--0--|
|-----8-----8--------x-----|-------x----------x------|--------x-------------0--|


                                                                               
|-------------------------|--------------------------|-------------------------|
|-------------------------|--------------------------|-------------------------|
|-------------------------|-----------------------7--|----7--7--7--7--7--7--7--|
|-------------------------|--------------5-----------|-------------------------|
|-------5-----5-----5-----|--5--8--7--3-----3-----5--|----5--5--5--5--5--5--5--|
|----0-----0-----0-----0--|--------------------3--0--|----0--0--0--0--0--0--0--|
|
|
|
|-------------------------|------------------------|-------------------------|
|-------------------------|------------------------|-------------------------|
|-------------------------|---------------------7--|----7--7--7--7--7--7--7--|
|-------------------------|------------------------|-------------------------|
|------0----0----0--------|--0------------------5--|----5--5--5--5--5--5--5--|
|------0----0----0--------|--0------------------0--|----0--0--0--0--0--0--0--|


                                                            
|--------------------------|--------------------------------|
|--------------------------|--------------------------------|
|--7--7--7--7--5--7----10--|----10--10--10--10--10--10--10--|
|--------------------------|--------------------------------|
|--5--5--5--5--3--5----8---|----8---8---8---8---8---8---8---|
|--0--0--0--0--0--0----0---|----0---0---0---0---0---0---0---|
|
|
|
|---------------------------|--------------------------------|
|---------------------------|--------------------------------|
|--7--7--7--7--9--10----10--|----10--10--10--10--10--10--10--|
|---------------------------|--------------------------------|
|--5--5--5--5--7--8-----8---|----8---8---8---8---8---8---8---|
|--0--0--0--0--0--0-----0---|----0---0---0---0---0---0---0---|


                                                         
|------------------------------|-------------------------|
|------------------------------|-------------------------|
|--10--10--10--10--9--10-------|-------------------------|
|---------------------------7--|----7--7--7--7--7--7--7--|
|--8---8---8---8---7--8-----7--|----7--7--7--7--7--7--7--|
|--0---0---0---0---0--0-----7--|----7--7--7--7--7--7--7--|
|
|
|
|-------------------------------|--------------------------------|
|-------------------------------|--------------------------------|
|--10--10--10--10--9--10----14--|----14--14--14--14--14--14--14--|
|-------------------------------|--------------------------------|
|--8---8---8---8---7--8-----12--|----12--12--12--12--12--12--12--|
|--0---0---0---0---0--0---------|--------------------------------|


                                                                               
|-------------------------|-------------------------|--------------------------|
|-------------------------|-------------------------|--------------------------|
|-------------------------|-------------------------|--------------------------|
|--7--7--7--7--7--7----8--|----8--8--8--8--8--8--8--|--8--8--8--8--8--8--8-----|
|--7--7--7--7--7--7----8--|----8--8--8--8--8--8--8--|--8--8--8--8--8--8--8--0--|
|--7--7--7--7--7--7----8--|----8--8--8--8--8--8--8--|--8--8--8--8--8--8--8--0--|
|
|
|
|-------------------------------|-------------------------|--------------------------|
|-------------------------------|-------------------------|--------------------------|
|--14--14--14--14--14--14-------|-------------------------|--------------------------|
|----------------------------8--|----8--8--8--8--8--8--8--|--8--8--8--8--8--8--8-----|
|--12--12--12--12--12--12----8--|----8--8--8--8--8--8--8--|--8--8--8--8--8--8--8--0--|
|----------------------------8--|----8--8--8--8--8--8--8--|--8--8--8--8--8--8--8--0--|


                                                           
|-----------------------------|----------------------------|
|-----------------------------|----------------------------|
|--------10------------10-----|---------10-----------------|
|-----------------------------|----------------------------|
|--------8-------------8------|---------8------0--0--0--0--|
|----0-0-----0--0--0-0-----0--|--0--0-0-----0--0--0--0--0--|
|
|
|
|-----------------------------|----------------------------|
|-----------------------------|----------------------------|
|--------10-------------------|---------10-----------------|
|-----------------------------|----------------------------|
|--------8-------------8------|---------8------0--0--0--0--|
|----0-0-----0--0--0-0-----0--|--0--0-0-----0--0--0--0--0--|


                                                           
|-----------------------------|----------------------------|
|-----------------------------|----------------------------|
|--------10------------10-----|---------10-----------------|
|-----------------------------|----------------------------|
|--------8-------------8------|---------8------0--0--0--7--|
|----0-0-----0--0--0-0-----0--|--0--0-0-----0--0--0--0--7--|
|
|
|
|-----------------------------|----------------------------|
|-----------------------------|----------------------------|
|--------10-------------------|---------10-----------------|
|-----------------------------|----------------------------|
|--------8-------------8------|---------8------0--0--0--7--|
|----0-0-----0--0--0-0-----0--|--0--0-0-----0--0--0--0--7--|

                                                                              
|-------------------------|-------------------------|-------------------------|
|-------------------------|-------------------------|-------------------------|
|-------------------------|-------------------------|-------------------------|
|----7--7--7--7--7--7--7--|--7--7--7--7--7--7----8--|----8--8--8--8--8--8--8--|
|----7--7--7--7--7--7--7--|--7--7--7--7--7--7----8--|----8--8--8--8--8--8--8--|
|----7--7--7--7--7--7--7--|--7--7--7--7--7--7----8--|----8--8--8--8--8--8--8--|
|
|
|
|-------------------------|--------------------------|--------------------------------|
|-------------------------|--------------------------|--------------------------------|
|-------------------------|----------------------10--|----10--10--10--10--10--10--10--|
|----7--7--7--7--7--7--7--|----7--7--7--7--7-----8---|----8---8---8---8---8---8---8---|
|----7--7--7--7--7--7--7--|----7--7--7--7--7-----8---|----8---8---8---8---8---8---8---|
|----7--7--7--7--7--7--7--|----7--7--7--7--7-----8---|----8---8---8---8---8---8---8---|


                                                                         
|--------------------|--------------------------|------------------------|
|--10----------------|--------------------------|------------------------|
|--10----------------|--------------------------|------------------------|
|--8-----------------|--------------5-----7-----|--5---------------------|
|--8-----------------|--0-----8-----------------|--------8-----7---------|
|--8-----------------|--0--0-----0-----0-----0--|-----0-----0-------3----|
|
|
|
|--------------------|--------------------------|------------------------|
|--10----------------|--------------------------|------------------------|
|--10----------------|--------------------------|------------------------|
|--8-----------------|--------------------------|------------------------|
|--8-----------------|--0-----5-----7-----8-----|--7-----5-----3---------|
|--8-----------------|--0--0-----0-----0-----0--|-----0-----0-------3----|


                                                        
|--------------------------|-----------------------------|
|--------------------------|-----------------------------|
|--------------------------|-----------------------------|
|--------------5-----7-----|-----------------------------|
|--0-----8-----------------|--5-8-5-----4-7-4-----3-6-3--|
|--0--0-----0-----0-----0--|---------0---------0---------|
|
|
|
|--------------------------|-----------------------------|
|--------------------------|-----------------------------|
|--------------------------|-----------------------------|
|--------------------------|-----------------------------|
|--0-----5-----7-----8-----|--5-8-5-----4-7-4-----3-6-3--|
|--0--0-----0-----0-----0--|---------0---------0---------|


                                                                               
|--------------------------|------------------------|--------------------------|
|--------------------------|------------------------|--------------------------|
|--------------------------|------------------------|--------------------------|
|--------------------------|------------------------|--------------------------|
|--0-----5-----7-----8-----|--7-----5-----3---------|--0-----5-----7-----8-----|
|--0--0-----0-----0-----0--|-----0-----0-------3----|--0--0-----0-----0-----0--|
|
|
|
|--------------------------|------------------------|--------------------------|
|--------------------------|------------------------|--------------------------|
|--------------------------|------------------------|--------------------------|
|--------------5-----7-----|--5---------------------|--------------5-----7-----|
|--0-----8-----------------|--------8-----7---------|--0-----8-----------------|
|--0--0-----0-----0-----0--|-----0-----0-------3----|--0--0-----0-----0-----0--|


                                                         
|-----------------------------|--------------------------|
|-----------------------------|--------------------------|
|-----------------------------|--------------------------|
|-----------------------------|--------------------------|
|--5-8-5-----4-7-4-----3-6-3--|--0-----5-----7-----8-----|
|---------0---------0---------|--0--0-----0-----0-----0--|
|
|
|
|-----------------------------|--------------------------|
|-----------------------------|--------------------------|
|-----------------------------|--------------------------|
|-----------------------------|--------------5-----7-----|
|--5-8-5-----4-7-4-----3-6-3--|--0-----8-----------------|
|---------0---------0---------|--0--0-----0-----0-----0--|


                                                                               
|------------------------|--------------------------|--------------------------|
|------------------------|--------------------------|--------------------------|
|------------------------|--------------------------|--------------------------|
|------------------------|--------------------------|--7-----3-----3h7p3--2----|
|--7-----5-----3---------|--0-----5-----7-----8-----|--------------------------|
|-----0-----0-------3----|--0--0-----0-----0-----0--|-----0-----0--------------|
|
|
|
|------------------------|--------------------------|--------------------------|
|------------------------|--------------------------|--------------------------|
|------------------------|--------------------------|--5-----2-----2h5p2p-0----|
|--5---------------------|--------------5-----7-----|--------------------------|
|--------8-----7---------|--0-----8-----------------|--------------------------|
|-----0-----0-------3----|--0--0-----0-----0-----0--|-----0-----0--------------|


                                                                               
|--------------------------|------------------------|--------------------------|
|--------------------------|------------------------|--------------------------|
|--------------------------|------------------------|--------------------------|
|--------------------------|------------------------|--------------------------|
|--0-----5-----7-----8-----|--7-----5-----3---------|--0-----5-----7-----8-----|
|--0--0-----0-----0-----0--|-----0-----0-------3----|--0--0-----0-----0-----0--|
|
|
|
|--------------------------|------------------------|--------------------------|
|--------------------------|------------------------|--------------------------|
|--------------------------|------------------------|--------------------------|
|--------------5-----7-----|--5---------------------|--------------5-----7-----|
|--0-----8-----------------|--------8-----7---------|--0-----8-----------------|
|--0--0-----0-----0-----0--|-----0-----0-------3----|--0--0-----0-----0-----0--|

                                                            
|-----------------------------|-----------------------------|
|-----------------------------|-----------------------------|
|-----------------------------|-----------------------------|
|-----------------------------|-----------------------------|
|--5-8-5-----4-7-4-----3-6-3--|--5-8-5-----4-7-4-----3-6-3--|
|---------0---------0---------|---------0---------0---------|
|
|
|
|-----------------------------|-----------------------------|
|-----------------------------|-----------------------------|
|-----------------------------|-----------------------------|
|-----------------------------|-----------------------------|
|--5-8-5-----4-7-4-----3-6-3--|--5-8-5-----4-7-4-----3-6-3--|
|---------0---------0---------|---------0---------0---------|


                                                                            
|-----------------------------|-------------------|-------------------------|
|-----------------------------|-------------------|-------------------------|
|-----------------------------|-------------------|-------------------------|
|-----------------------------|--0----------------|-------------------------|
|--5-8-5-----4-7-4-----3-6-3--|--0----------------|--0----7p-5-----7h-8-----|
|---------0---------0---------|--0----------------|--0----------0--------8--|
|
|
|
|-----------------------------|-------------------|-------------------------|
|-----------------------------|-------------------|-------------------------|
|-----------------------------|-------------------|-------------------------|
|-----------------------------|--0----------------|----------------5--7-----|
|--5-8-5-----4-7-4-----3-6-3--|--0----------------|--0----7p-5--------------|
|---------0---------0---------|--0----------------|--0----------0--------8--|



                                                     
|--------------------------|-------------------------|
|--------------------------|-------------------------|
|--------------------------|-------------------------|
|--------------------------|-------------------------|
|--10-----8-----7--5-------|-------7p-5-----7h-8-----|
|------8-----8--------8----|--0----------0--------8--|
|
|
|
|-------------------------|-------------------------|
|-------------------------|-------------------------|
|-------------------------|-------------------------|
|--8-----7-----5----------|----------------5--7-----|
|-----------------8-------|-------7p-5--------------|
|-----8-----8--------8----|--0----------0--------8--|



                                                        
|-----------------------------|-------------------------|
|-----------------------------|-------------------------|
|-----------------------------|-------------------------|
|-----------------------------|-------------------------|
|--10-----12-----13--12--8----|--0----7p-5-----7h-8-----|
|------8------8---------------|--0----------0--------8--|
|
|
|
|----------------------------|-------------------------|
|----------------------------|-------------------------|
|----------------------------|-------------------------|
|--8-----10-----12--10--7----|----------------5--7-----|
|----------------------------|--0----7p-5--------------|
|-----8------8---------------|--0----------0--------8--|



                                                     
|--------------------------|-------------------------|
|--------------------------|-------------------------|
|--------------------------|-------------------------|
|--------------------------|-------------------------|
|--10-----8-----7--5-------|-------7p-5-----7h-8-----|
|------8-----8--------8----|--0----------0--------8--|
|
|
|
|-------------------------|-------------------------|
|-------------------------|-------------------------|
|-------------------------|-------------------------|
|--8-----7-----5----------|----------------5--7-----|
|-----------------8-------|-------7p-5--------------|
|-----8-----8--------8----|--0----------0--------8--|


                                                         
|------------------------------|-------------------------|
|------------------------------|-------------------------|
|------------------------------|-------------------------|
|------------------------------|-------------------------|
|--10-----12-----13--12--8--0--|-------7p-5-----7h-8-----|
|------8------8-------------0--|----0--------0--------8--|
|
|
|
|-----------------------------|-------------------------|
|-----------------------------|-------------------------|
|-----------------------------|-------------------------|
|--8-----10-----12--10--7-----|----------------5--7-----|
|--------------------------0--|-------7--5--------------|
|-----8------8-------------0--|----0--------0--------8--|



                                                      
|---------------------------|-------------------------|
|---------------------------|-------------------------|
|---------------------------|-------------------------|
|---------------------------|-------------------------|
|--10-----8-----7--5-----0--|-------7p-5-----7h-8-----|
|------8-----8--------8--0--|----0--------0--------8--|
|
|
|
|--------------------------|-------------------------|
|--------------------------|-------------------------|
|--------------------------|-------------------------|
|--8-----7-----5--3--------|----------------5--7-----|
|-----------------------0--|-------7p-5--------------|
|-----8-----8--------8--0--|----0--------0--------8--|


                                                         
|------------------------------|-------------------------|
|------------------------------|-------------------------|
|------------------------------|-------------------------|
|------------------------------|-------------------------|
|--10-----12-----13--12--8--0--|-------7p-5-----7h-8-----|
|------8------8-------------0--|----0--------0--------8--|
|
|
|
|-----------------------------|-------------------------|
|-----------------------------|-------------------------|
|-----------------------------|-------------------------|
|--8-----10-----12--10--7-----|----------------5--7-----|
|--------------------------0--|-------7p-5--------------|
|-----8------8-------------0--|----0--------0--------8--|


                                                                               
|---------------------------|--------------------------|-----------------------|
|---------------------------|--------------------------|-----------------------|
|---------------------------|--------------------------|-----------------------|
|------------------------8--|----8--x--10----10--x--5--|----5--x--3----3b---0--|
|--10-----8-----7--5--x--8--|----8--x--10----10--x--5--|----5--x--3---------0--|
|------8-----8--------x--8--|----8--x--10----10--x--5--|----5--x--3---------0--|
|
|
|
|--------------------------|-------------------------|-----------------------|
|--------------------------|-------------------------|-----------------------|
|-----------------------7--|----7-----9----9-----10--|----10-----9-----------|
|--8-----7-----5-----------|-------x----------x------|--------x-----------0--|
|-----------------8--x--5--|----5--x--7----7--x--8---|----8---x--7--------0--|
|-----8-----8--------x-----|-------x----------x------|--------x-----------0--|


                                                                               
|-------------------------|--------------------------|-------------------------|
|-------------------------|--------------------------|-------------------------|
|-------------------------|--------------------------|-------------------------|
|-------------------------|--------------5--------0--|-------------------------|
|-------5-----5-----5-----|--5--8--7--3-----3-----0--|-------5-----5-----5-----|
|----0-----0-----0-----0--|--------------------3--0--|----0-----0-----0-----0--|
|
|
|
|-------------------------|--------------------------|-------------------------|
|-------------------------|--------------------------|-------------------------|
|-------------------------|--------------------------|-------------------------|
|----0--------------------|-----------------------0--|----0--------------------|
|----0--------------------|-----------------------0--|----0--------------------|
|----0--------------------|-----------------------0--|----0--------------------|


                                                                                
|--------------------------|-------------------------|--------------------------|
|--------------------------|-------------------------|--------------------------|
|--------------------------|-------------------------|--------------------------|
|-----------------------0--|-------------------------|--------------5--------0--|
|--5--8--7--3--5--3-----0--|-------5-----5-----5-----|--5--8--7--3-----3-----0--|
|--------------------3--0--|----0-----0-----0-----0--|--------------------3--0--|
|
|
|
|--------------------------|-------------------------|--------------------------|
|--------------------------|-------------------------|--------------------------|
|--------------------------|-------------------------|--------------------------|
|-----------------------0--|----0--------------------|-----------------------0--|
|-----------------------0--|----0--------------------|-----------------------0--|
|-----------------------0--|----0--------------------|-----------------------0--|


                                                                         
|-------------------------|--------------------|-------------------------|
|-------------------------|--------------------|-------------------------|
|-------------------------|-----------------7--|----7--7--7--7--7--7--7--|
|-------------------------|--------------------|-------------------------|
|-------5-----5-----5-----|--0--------------5--|----5--5--5--5--5--5--5--|
|----0-----0-----0-----0--|--0--------------0--|----0--0--0--0--0--0--0--|
|
|
|
|-------------------------|--------------------|-------------------------|
|-------------------------|--------------------|-------------------------|
|-------------------------|-----------------7--|----7--7--7--7--7--7--7--|
|----0--------------------|--------------------|-------------------------|
|----0--------------------|--0--------------5--|----5--5--5--5--5--5--5--|
|----0--------------------|--0--------------0--|----0--0--0--0--0--0--0--|


                                                            
|--------------------------|--------------------------------|
|--------------------------|--------------------------------|
|--7--7--7--7--5--7----10--|----10--10--10--10--10--10--10--|
|--------------------------|--------------------------------|
|--5--5--5--5--3--5----8---|----8---8---8---8---8---8---8---|
|--0--0--0--0--0--0----0---|----0---0---0---0---0---0---0---|
|
|
|
|--------------------------|--------------------------------|
|--------------------------|--------------------------------|
|--7--7--7--7--5--7----10--|----10--10--10--10--10--10--10--|
|--------------------------|--------------------------------|
|--5--5--5--5--3--5----8---|----8---8---8---8---8---8---8---|
|--0--0--0--0--0--0----0---|----0---0---0---0---0---0---0---|

 
                                                        
|------------------------------|-------------------------|
|------------------------------|-------------------------|
|--10--10--10--10--9--10-------|-------------------------|
|---------------------------7--|----7--7--7--7--7--7--7--|
|--8---8---8---8---7--8-----7--|----7--7--7--7--7--7--7--|
|--0---0---0---0---0--0-----7--|----7--7--7--7--7--7--7--|
|
|
|
|------------------------------|--------------------------------|
|------------------------------|--------------------------------|
|--10--10--10--10--9--10-------|----14--14--14--14--14--14--14--|
|---------------------------7--|--------------------------------|
|--8---8---8---8---7--8-----7--|----12--12--12--12--12--12--12--|
|--0---0---0---0---0--0-----7--|--------------------------------|

                                                                               
|-------------------------|-------------------------|--------------------------|
|-------------------------|-------------------------|--------------------------|
|-------------------------|-------------------------|--------------------------|
|--7--7--7--7--7--7----8--|----8--8--8--8--8--8--8--|--8--8--8--8--8--8--8-----|
|--7--7--7--7--7--7----8--|----8--8--8--8--8--8--8--|--8--8--8--8--8--8--8--0--|
|--7--7--7--7--7--7----8--|----8--8--8--8--8--8--8--|--8--8--8--8--8--8--8--0--|
|
|
|
|-------------------------------|-------------------------|---------------------------------|
|-------------------------------|-------------------------|--10--10--10--10--10--10--10-----|
|--14--14--14--14--14--14-------|-------------------------|--10--10--10--10--10--10--10-----|
|----------------------------8--|----8--8--8--8--8--8--8--|--8---8---8---8---8---8---8------|
|--12--12--12--12--12--12----8--|----8--8--8--8--8--8--8--|--8---8---8---8---8---8---8---0--|
|----------------------------8--|----8--8--8--8--8--8--8--|--8---8---8---8---8---8---8---0--|


                                                                        
|-----------------------|-----------------------|-----------------------|
|-----------------------|-----------------------|-----------------------|
|-----------------------|-----------------------|-----------------------|
|-----------------------|-----------------------|-----------------------|
|-------8----7-------8--|----7-------8-----8----|-------8----7-------8--|
|----0------------0-----|---------0-----0-------|--0--------------0-----|
|
|
|
|-----------------------|-----------------------|-----------------------|
|-----------------------|-----------------------|-----------------------|
|-----------------------|-----------------------|-----------------------|
|-------7----5-------7--|----5-------7-----7----|-------7----5-------7--|
|-----------------------|-----------------------|-----------------------|
|----0------------0-----|---------0-----0-------|--0--------------0-----|


                                                                               
|-------------------------|-------------------------|--------------------------|
|-------------------------|-------------------------|--------------------------|
|-------------------------|-------------------------|--------------------------|
|-------------------------|--7----7--7--7--7--7--7--|--7--7--7--7--7--7--7--7--|
|----7-------8-----8--10--|--7----7--7--7--7--7--7--|--7--7--7--7--7--7--7--7--|
|---------0-----0---------|--7----7--7--7--7--7--7--|--7--7--7--7--7--7--7--7--|
|
|
|
|------------------------|-------------------------|--------------------------|
|------------------------|-------------------------|--------------------------|
|------------------------|-------------------------|--------------------------|
|----5-------7-----7--8--|--7----7--7--7--7--7--7--|--7--7--7--7--7--7--7--7--|
|------------------------|--7----7--7--7--7--7--7--|--7--7--7--7--7--7--7--7--|
|---------0-----0--------|--7----7--7--7--7--7--7--|--7--7--7--7--7--7--7--7--|


                                                      
|--------------------------|--------------------------|
|--------------------------|--------------------------|
|--------------------------|--------------------------|
|--8--8--8--8--8--8--8--8--|--7--7--7--7--7--7--7--7--|
|--8--8--8--8--8--8--8--8--|--7--7--7--7--7--7--7--7--|
|--8--8--8--8--8--8--8--8--|--7--7--7--7--7--7--7--7--|
|
|
|
|--------------------------|--------------------------|
|--------------------------|--------------------------|
|--------------------------|--------------------------|
|--8--8--8--8--8--8--8--8--|--7--7--7--7--7--7--7--7--|
|--8--8--8--8--8--8--8--8--|--7--7--7--7--7--7--7--7--|
|--8--8--8--8--8--8--8--8--|--7--7--7--7--7--7--7--7--|


                                                      
|--------------------------|--------------------------|
|--------------------------|--------------------------|
|--------------------------|--------------------------|
|--5--5--5--5--5--5--5--5--|--3--3--3--3--2--2--2--2--|
|--5--5--5--5--5--5--5--5--|--3--3--3--3--3--3--3--3--|
|--5--5--5--5--5--5--5--5--|--3--3--3--3--2--2--2--2--|
|
|
|
|--------------------------|--------------------------|
|--------------------------|--------------------------|
|--------------------------|--------------------------|
|--5--5--5--5--5--5--5--5--|--3--3--3--3--2--2--2--2--|
|--5--5--5--5--5--5--5--5--|--3--3--3--3--3--3--3--3--|
|--5--5--5--5--5--5--5--5--|--3--3--3--3--2--2--2--2--|


                                                                               
|--------------------------|------------------------|--------------------------|
|--------------------------|------------------------|--------------------------|
|--------------------------|------------------------|--------------------------|
|--------------------------|------------------------|--5--5--5--5--5--5--5--5--|
|--------5-----3--5-----8--|-----7-----3--5----3~---|--5--5--5--5--5--5--5--5--|
|--0--0-----0--------0-----|--0-----0---------------|--5--5--5--5--5--5--5--5--|
|
|
|
|--------------------------|------------------------|--------------------------|
|--------------------------|------------------------|--------------------------|
|--------------------------|------------------------|--------------------------|
|--------------------------|------------------------|--5--5--5--5--5--5--5--5--|
|--------5-----3--5-----8--|-----7-----3--5----3~---|--5--5--5--5--5--5--5--5--|
|--0--0-----0--------0-----|--0-----0---------------|--5--5--5--5--5--5--5--5--|


                                                        
|--------------------------|----------------------------|
|--------------------------|----------------------------|
|--------------------------|----------------------------|
|--3--3--3--3--3--3--3--3--|----------------------------|
|--3--3--3--3--3--3--3--3--|--0--0--12--0--10--0--8--0--|
|--3--3--3--3--3--3--3--3--|----------------------------|
|
|
|
|--------------------------|----------------------------|
|--------------------------|----------------------------|
|--------------------------|----------------------------|
|--3--3--3--3--3--3--3--3--|--7--7----------------------|
|--3--3--3--3--3--3--3--3--|--7--7--------------7-7-7-7-|
|--3--3--3--3--3--3--3--3--|--7--7--------------7-7-7-7-|


                                                      
|--------------------------|--------------------------|
|--------------------------|--------------------------|
|--------------------------|--------------------------|
|--------------------------|--5--5--5--5--5--5--5--5--|
|--7--8--0--5--0--5--3--5--|--5--5--5--5--5--5--5--5--|
|--------------------------|--5--5--5--5--5--5--5--5--|
|
|
|
|----------------------|--------------------------|
|----------------------|--------------------------|
|----------------------|--------------------------|
|----------------------|--5--5--5--5--5--5--5--5--|
|--7--7------7--7------|--5--5--5--5--5--5--5--5--|
|--7--7------7--7------|--5--5--5--5--5--5--5--5--|


                                                                               
|--------------------------|--------------------------|------------------------|
|--------------------------|--------------------------|------------------------|
|--------------------------|--------------------------|------------------------|
|--3--3--3--3--2--2--2--2--|--------------------------|-------------------2b---|
|--3--3--3--3--3--3--3--3--|--------5-----3--5-----8--|-----7-----3--5---------|
|--3--3--3--3--2--2--2--2--|--0--0-----0--------0-----|--0-----0---------------|
|
|
|
|--------------------------|--------------------------|------------------------|
|--------------------------|--------------------------|------------------------|
|--------------------------|--------------------------|------------------------|
|--3--3--3--3--2--2--2--2--|--------------------------|-------------------2b---|
|--3--3--3--3--3--3--3--3--|--------5-----3--5-----8--|-----7-----3--5---------|
|--3--3--3--3--2--2--2--2--|--0--0-----0--------0-----|--0-----0---------------|


                                                      
|--------------------------|--------------------------|
|--------------------------|--------------------------|
|--------------------------|--------------------------|
|--5--5--5--5--5--5--5--5--|--3--3--3--3--3--3--3--3--|
|--5--5--5--5--5--5--5--5--|--3--3--3--3--3--3--3--3--|
|--5--5--5--5--5--5--5--5--|--3--3--3--3--3--3--3--3--|
|
|
|
|--------------------------|--------------------------|
|--------------------------|--------------------------|
|--------------------------|--------------------------|
|--5--5--5--5--5--5--5--5--|--3--3--3--3--3--3--3--3--|
|--5--5--5--5--5--5--5--5--|--3--3--3--3--3--3--3--3--|
|--5--5--5--5--5--5--5--5--|--3--3--3--3--3--3--3--3--|


                                                        
|----------------------------|--------------------------|
|----------------------------|--------------------------|
|----------------------------|--------------------------|
|----------------------------|--------------------------|
|--0--0--12--0--10--0--8--0--|--7--8--0--5--0--5--3--5--|
|----------------------------|--------------------------|
|
|
|
|----------------------------|----------------------|
|----------------------------|----------------------|
|----------------------------|----------------------|
|--7--7----------------------|----------------------|
|--7--7--------------7-7-7-7-|--7--7------7--7------|
|--7--7--------------7-7-7-7-|--7--7------7--7------|


                                                        
|----------------------------|--------------------------|
|----------------------------|--------------------------|
|----------------------------|--------------------------|
|----------------------------|--------------------------|
|--0--0--12--0--10--0--8--0--|--7--8--0--5--0--5--3--5--|
|----------------------------|--------------------------|
|
|
|
|----------------------------|----------------------|
|----------------------------|----------------------|
|----------------------------|----------------------|
|--7--7----------------------|----------------------|
|--7--7--------------7-7-7-7-|--7--7------7--7------|
|--7--7--------------7-7-7-7-|--7--7------7--7------|


                                                        
|----------------------------|--------------------------|
|----------------------------|--------------------------|
|----------------------------|--------------------------|
|----------------------------|--------------------------|
|--0--0--12--0--10--0--8--0--|--7--8--0--5--0--5--3--5--|
|----------------------------|--------------------------|
|
|
|
|----------------------------|----------------------|
|----------------------------|----------------------|
|----------------------------|----------------------|
|--7--7----------------------|----------------------|
|--7--7--------------7-7-7-7-|--7--7------7--7------|
|--7--7--------------7-7-7-7-|--7--7------7--7------|


                                                        
|----------------------------|--------------------------|
|----------------------------|--------------------------|
|----------------------------|--------------------------|
|----------------------------|--------------------------|
|--0--0--12--0--10--0--8--0--|--7--8--0--5--0--5--3--5--|
|----------------------------|--------------------------|
|
|
|
|----------------------------|----------------------|
|----------------------------|----------------------|
|----------------------------|----------------------|
|--7--7----------------------|----------------------|
|--7--7--------------7-7-7-7-|--7--7------7--7------|
|--7--7--------------7-7-7-7-|--7--7------7--7------|


                                                                         
|------------------------|----------------------|------------------------|
|------------------------|----------------------|------------------------|
|------------------------|----------------------|------------------------|
|------------------------|----------------------|------------------------|
|--0--0------------------|--0--0------0--0------|--0--0------------------|
|--0--0----------0-0-0-0-|--0--0------0--0------|--0--0----------0-0-0-0-|
|
|
|
|------------------------|----------------------|------------------------|
|------------------------|----------------------|------------------------|
|------------------------|----------------------|------------------------|
|------------------------|----------------------|------------------------|
|--0--0------------------|--0--0------0--0------|--0--0------------------|
|--0--0----------0-0-0-0-|--0--0------0--0------|--0--0----------0-0-0-0-|



                                                                       
|----------------------|------------------------|----------------------|
|----------------------|------------------------|----------------------|
|----------------------|------------------------|----------------------|
|----------------------|------------------------|----------------------|
|--0--0------0--0------|--0--0------------------|--0--0------0--0------|
|--0--0------0--0------|--0--0----------0-0-0-0-|--0--0------0--0------|
|
|
|
|----------------------|------------------------|----------------------|
|----------------------|------------------------|----------------------|
|----------------------|------------------------|----------------------|
|----------------------|------------------------|----------------------|
|--0--0------0--0------|--0--0------------------|--0--0------0--0------|
|--0--0------0--0------|--0--0----------0-0-0-0-|--0--0------0--0------|


                                                          
|------------------------|----------------------|--------||
|------------------------|----------------------|--------||
|------------------------|----------------------|--------||
|------------------------|----------------------|--------||
|--0--0------------------|--0--0------0--0------|--0--0--||
|--0--0----------0-0-0-0-|--0--0------0--0------|--0--0--||
|
|
|
|------------------------|----------------------|--------||
|------------------------|----------------------|--------||
|------------------------|----------------------|--------||
|------------------------|----------------------|--------||
|--0--0------------------|--0--0------0--0------|--0--0--||
|--0--0----------0-0-0-0-|--0--0------0--0------|--0--0--||

Updated with both guitars this time...
Suggest correction
Creating personal tab
Creating personal tab
You can edit any tab online and save it as your Personal.

You can edit, replace or remove any tab part or add personal notes – all changes will be seen only by you.

Personal tabs can be accessed anytime from any device, even offline.
Learn more »
Give kudos to tab author, rate the tab!
1 2 3 4 5
comments
print report bad tab
3 comments total.
+3 reply
Tias 181 Dec 27, 2006 11:08 AM

Dude, it looks good, but make it shorter its way to long

+3 reply
ibanezeric82 103 Apr 13, 2008 08:33 PM

Indicators for which parts are where would be nice as well.

+4 reply
yonathon 30 Aug 26, 2008 07:29 AM

confusing as ****

guest
You may want to rate the tab now too:
select rating
Wanna post a correction for this tab? Suggest correction