Oops, an error
Loading. Please wait.

Cada Vez Que Respires Tab

by Sting
120 views 3 this week
no commentswrite comment
1 2 3 4 5
3 more votes to show rating
add to favorites
×
Save as Personal and add changes to this tab that will be seen only by you. Learn more ›
×
You can save this tab as Personal to edit and correct it or add notes. All changes will be seen only by you. Learn more »
save as personal
new!
launch autoscroll
font size
0
reset
how to read this tab
guitar tuner
Autoscroll
slow
fast
+/-
esc
set tempo
stop
Hola a todos, soy Raúl y les traigo esta hermosa canción de The
Police, y composición de Sting "EVERY BREATH YOU TAKE", pero como
en La Cuerda no aceptan canciones en inglés, la ha adaptado al
español, asi que es "CADA VEZ QUE RESPIRAS", bueno esta canción
se la quiero dedicar a una mujer que ocupo un gran espacio en mi
corazón, y dejo huella, para ti Diana: "Since you've gone I've
been lost without a trace, I dream at night, I can only see your
face, I look around, but it's you I can't replace, I feel so cold,
and I long for your embrace,I keep crying baby, baby please...",
te acuerdas de las clases de ingles en el ICPNA, jajaja ya tu sabes
que quiero decir, te tengo aun en mi corazón, para ti, ahi va:

=================================================================

NOTA: Todas las notas son muteadas

ºººINTROººº
                 G#
E|--------------------------------------|
B|--------------------------------------|
G|----------5-----------------1---------|
D|-----8------8---8------8------8---8---|
A|---6---6------6------6---6------6-----|
E|-4-----------------4------------------|

                  Fm
E|--------------------------------------|
B|--------------------------------------|
G|----------1-----------------1---------|
D|-----5------5---5------5------5---5---|
A|---3---3------3------3---3------3-----|
E|-1-----------------1------------------|

          C#                D#
E|------------------|-------------------|
B|------------------|-------------------|
G|-------8---6------|-----10---8--------|
D|-----6---6---6----|---8----8---8------|
A|---4------------4-|-6------------6----|
E|------------------|-------------------|

                   G#
E|--------------------------------------|
B|--------------------------------------|
G|----------5-----------------1---------|
D|-----8------8---8------8------8---8---|
A|---6---6------6------6---6------6-----|
E|-4-----------------4------------------|


ºººPRIMERA ESTROFAººº

          Cada vez que respiras
                   G#
E|--------------------------------------|
B|--------------------------------------|
G|----------5-----------------1---------|
D|-----8------8---8------8------8---8---|
A|---6---6------6------6---6------6-----|
E|-4-----------------4------------------|


         Cada movimiento que haces
                    Fm
E|--------------------------------------|
B|--------------------------------------|
G|----------1-----------------1---------|
D|-----5------5---5------5------5---5---|
A|---3---3------3------3---3------3-----|
E|-1-----------------1------------------|

 Cada lazo que rompas, cada paso que dés
           C#                D#
E|------------------|-------------------|
B|------------------|-------------------|
G|-------8---6------|-----10---8--------|
D|-----6---6---6----|---8----8---8------|
A|---4------------4-|-6------------6----|
E|------------------|-------------------|

            Te estaré observando
                    Fm
E|--------------------------------------|
B|--------------------------------------|
G|----------1-----------------1---------|
D|-----5------5---5------5------5---5---|
A|---3---3------3------3---3------3-----|
E|-1-----------------1------------------|


ºººSEGUNDA ESTROFAººº

              Cada simple dia
                   G#
E|--------------------------------------|
B|--------------------------------------|
G|----------5-----------------1---------|
D|-----8------8---8------8------8---8---|
A|---6---6------6------6---6------6-----|
E|-4-----------------4------------------|

          Y cada palabra que dices
                     Fm
E|--------------------------------------|
B|--------------------------------------|
G|----------1-----------------1---------|
D|-----5------5---5------5------5---5---|
A|---3---3------3------3---3------3-----|
E|-1-----------------1------------------|

Cada juego que juegas, cada noches que te quedas
           C#                D#
E|------------------|-------------------|
B|------------------|-------------------|
G|-------8---6------|-----10---8--------|
D|-----6---6---6----|---8----8---8------|
A|---4------------4-|-6------------6----|
E|------------------|-------------------|

            Te estaré observando
                    G#
E|--------------------------------------|
B|--------------------------------------|
G|----------5-----------------1---------|
D|-----8------8---8------8------8---8---|
A|---6---6------6------6---6------6-----|
E|-4-----------------4------------------|

ºººCOROººº

 Oh ¿no puedes ver?, que tu me perteneces
         C#                 B
E|------------------|-------------------|
B|------------------|-------------------|
G|-------8---6------|-----6----4--------|
D|-----6---6---6----|---4---4---4-------|
A|---4------------4-|-2------------2----|
E|------------------|-------------------|

                   G#
E|--------------------------------------|
B|--------------------------------------|
G|----------5-----------------1---------|
D|-----8------8---8------8------8---8---|
A|---6---6------6------6---6------6-----|
E|-4-----------------4------------------|

       Como duele mi pobre corazón
                   A#
E|---------------------------------------|
B|---------------------------------------|
G|----------7------------------7---------|
D|-----10-----10---10-----10-----10---10-|
A|---8---8-------8------8----8-------8---|
E|-6------------------6------------------|

          Con cada paso que das
                   D#
E|--------------------------------------|
B|--------------------------------------|
G|-------10--8------------10---8--------|
D|-----8---8---8----8---8----8---8------|
A|---6------------6---6------------6----|
E|--------------------------------------|


ºººTERCERA ESTROFAººº

         Cada movimiento que hagas
                   G#
E|--------------------------------------|
B|--------------------------------------|
G|----------5-----------------1---------|
D|-----8------8---8------8------8---8---|
A|---6---6------6------6---6------6-----|
E|-4-----------------4------------------|

         Cada promesa que rompas
                    Fm
E|--------------------------------------|
B|--------------------------------------|
G|----------1-----------------1---------|
D|-----5------5---5------5------5---5---|
A|---3---3------3------3---3------3-----|
E|-1-----------------1------------------|

 Cada sonrisa que finjas, cada reclamo que impongas
           C#                D#
E|------------------|-------------------|
B|------------------|-------------------|
G|-------8---6------|-----10---8--------|
D|-----6---6---6----|---8----8---8------|
A|---4------------4-|-6------------6----|
E|------------------|-------------------|

            Te estaré observando
                    Fm
E|--------------------------------------|
B|--------------------------------------|
G|----------1-----------------1---------|
D|-----5------5---5------5------5---5---|
A|---3---3------3------3---3------3-----|
E|-1-----------------1------------------|


ºººPUENTEººº

  Desde que te haz ido me he extraviado sin rumbo
                      E
E|-0--------12-------10--------8---------|
B|-0-------------------------------------|
G|-1-------------------------------------|
D|-2-------------------------------------|
A|-2-------------------------------------|
E|-0-------------------------------------|

  Cuando sueño en la noche, solo veo tu rostro
                     F#
E|-2--------14-------12-------10---------|
B|-2-------------------------------------|
G|-3-------------------------------------|
D|-4-------------------------------------|
A|-4-------------------------------------|
E|-2-------------------------------------|

  Miro alrededor y a ti no te puedo reemplazar
                    E
E|-0--------12-------10--------8---------|
B|-0-------------------------------------|
G|-1-------------------------------------|
D|-2-------------------------------------|
A|-2-------------------------------------|
E|-0-------------------------------------|

   Me siento frio y hecho de menos tu abrazo
                     F#
E|-2--------14-------12-------10---------|
B|-2-------------------------------------|
G|-3-------------------------------------|
D|-4-------------------------------------|
A|-4-------------------------------------|
E|-2-------------------------------------|


    Sigo llorando, nena, nena, por favor
                      E
E|-0--------12-------10--------8---------|
B|-0-------------------------------------|
G|-1-------------------------------------|
D|-2-------------------------------------|
A|-2-------------------------------------|
E|-0-------------------------------------|


ºººINSTRUMENTALººº

                  G#
E|--------------------------------------|
B|--------------------------------------|
G|----------5-----------------1---------|
D|-----8------8---8------8------8---8---|
A|---6---6------6------6---6------6-----|
E|-4-----------------4------------------|

                   Fm
E|--------------------------------------|
B|--------------------------------------|
G|----------1-----------------1---------|
D|-----5------5---5------5------5---5---|
A|---3---3------3------3---3------3-----|
E|-1-----------------1------------------|

           C#                D#
E|------------------|-------------------|
B|------------------|-------------------|
G|-------8---6------|-----10---8--------|
D|-----6---6---6----|---8----8---8------|
A|---4------------4-|-6------------6----|
E|------------------|-------------------|

                   Fm
E|--------------------------------------|
B|--------------------------------------|
G|----------1-----------------1---------|
D|-----5------5---5------5------5---5---|
A|---3---3------3------3---3------3-----|
E|-1-----------------1------------------|

                    G#
E|--------------------------------------|
B|--------------------------------------|
G|----------5-----------------1---------|
D|-----8------8---8------8------8---8---|
A|---6---6------6------6---6------6-----|
E|-4-----------------4------------------|

                     Fm
E|--------------------------------------|
B|--------------------------------------|
G|----------1-----------------1---------|
D|-----5------5---5------5------5---5---|
A|---3---3------3------3---3------3-----|
E|-1-----------------1------------------|

           C#                D#
E|------------------|-------------------|
B|------------------|-------------------|
G|-------8---6------|-----10---8--------|
D|-----6---6---6----|---8----8---8------|
A|---4------------4-|-6------------6----|
E|------------------|-------------------|

                    G#
E|--------------------------------------|
B|--------------------------------------|
G|----------5-----------------1---------|
D|-----8------8---8------8------8---8---|
A|---6---6------6------6---6------6-----|
E|-4-----------------4------------------|


ºººCOROººº


 Oh ¿no puedes ver?, que tu me perteneces
         C#                 B
E|------------------|-------------------|
B|------------------|-------------------|
G|-------8---6------|-----6----4--------|
D|-----6---6---6----|---4---4---4-------|
A|---4------------4-|-2------------2----|
E|------------------|-------------------|

                   G#
E|--------------------------------------|
B|--------------------------------------|
G|----------5-----------------1---------|
D|-----8------8---8------8------8---8---|
A|---6---6------6------6---6------6-----|
E|-4-----------------4------------------|

        Como duele mi pobre corazón
                   A#
E|---------------------------------------|
B|---------------------------------------|
G|----------7------------------7---------|
D|-----10-----10---10-----10-----10---10-|
A|---8---8-------8------8----8-------8---|
E|-6------------------6------------------|

           Con cada paso que das
                     D#
E|--------------------------------------|
B|--------------------------------------|
G|-------10--8------------10---8--------|
D|-----8---8---8----8---8----8---8------|
A|---6------------6---6------------6----|
E|--------------------------------------|

ºººCUARTA  ESTROFAººº

         Cada movimiento que hagas
                   G#
E|--------------------------------------|
B|--------------------------------------|
G|----------5-----------------1---------|
D|-----8------8---8------8------8---8---|
A|---6---6------6------6---6------6-----|
E|-4-----------------4------------------|

          Cada promesa que rompas
                    Fm
E|--------------------------------------|
B|--------------------------------------|
G|----------1-----------------1---------|
D|-----5------5---5------5------5---5---|
A|---3---3------3------3---3------3-----|
E|-1-----------------1------------------|


 Cada sonrisa que finjas, cada reclamo que impongas
           C#                D#
E|------------------|-------------------|
B|------------------|-------------------|
G|-------8---6------|-----10---8--------|
D|-----6---6---6----|---8----8---8------|
A|---4------------4-|-6------------6----|
E|------------------|-------------------|


            Te estaré observando
                    Fm
E|--------------------------------------|
B|--------------------------------------|
G|----------1-----------------1---------|
D|-----5------5---5------5------5---5---|
A|---3---3------3------3---3------3-----|
E|-1-----------------1------------------|

Cada movimiento que hagas, cada paso que des
           C#                D#
E|------------------|-------------------|
B|------------------|-------------------|
G|-------8---6------|-----10---8--------|
D|-----6---6---6----|---8----8---8------|
A|---4------------4-|-6------------6----|
E|------------------|-------------------|


            Te estaré observando
                    Fm
E|--------------------------------------|
B|--------------------------------------|
G|----------1-----------------1---------|
D|-----5------5---5------5------5---5---|
A|---3---3------3------3---3------3-----|
E|-1-----------------1------------------|

                     Fm
E|--------------------------------------|
B|--------------------------------------|
G|----------1-----------------1---------|
D|-----5------5---5------5------5---5---|
A|---3---3------3------3---3------3-----|
E|-1-----------------1------------------|

ºººOUTROººº

            Te estaré observando
                     G#
E|--------------------------------------|
B|--------------------------------------|
G|----------5-----------------1---------|
D|-----8------8---8------8------8---8---|
A|---6---6------6------6---6------6-----|
E|-4-----------------4------------------|

                   Fm
E|--------------------------------------|
B|--------------------------------------|
G|----------1-----------------1---------|
D|-----5------5---5------5------5---5---|
A|---3---3------3------3---3------3-----|
E|-1-----------------1------------------|


         Te estaré observando
                  G#
E|--------------------------------------|
B|--------------------------------------|
G|----------5-----------------1---------|
D|-----8------8---8------8------8---8---|
A|---6---6------6------6---6------6-----|
E|-4-----------------4------------------|

                   Fm
E|--------------------------------------|
B|--------------------------------------|
G|----------1-----------------1---------|
D|-----5------5---5------5------5---5---|
A|---3---3------3------3---3------3-----|
E|-1-----------------1------------------|

             Te estaré observando
                    G#
E|--------------------------------------|
B|--------------------------------------|
G|----------5-----------------1---------|
D|-----8------8---8------8------8---8---|
A|---6---6------6------6---6------6-----|
E|-4-----------------4------------------|

                    Fm
E|--------------------------------------|
B|--------------------------------------|
G|----------1-----------------1---------|
D|-----5------5---5------5------5---5---|
A|---3---3------3------3---3------3-----|
E|-1-----------------1------------------|

================================================================

...Aun no te olvido...
Suggest correction
Give kudos to tab author, rate the tab!
1 2 3 4 5
comments
print report bad tab
guest
Wanna post a correction for this tab? Suggest correction