Oops, an error
Loading. Please wait.

Fields Of Gold Bass Tab

version 2
version 2

Whole song

Interactive

1,746 views 1 this week
no commentswrite comment
1 2 3 4 5
please rate
add to favorites
launch autoscroll
font size
0
reset
guitar tuner
Tab Pro tools
  • play this tab
  • loop segment
  • change instrument
  • show fretboard
  • metronome
×
Best way to learn
"Fields Of Gold"
Autoscroll
slow
fast
+/-
esc
set tempo
stop
Contributor
Difficulty
intermediate
(Album : Ten Summoner‘s tales)
Tabbed by Bruno

Tune E/A/D/G

Another way to play it in harmony with this beautiful song

          * 7 times **
G--------|------------|--|
D--------|------------|--|   Bass Intro
A--2--2--|--2-0-2---2-|--|
E--------|------------|--|


VERSE 1:
You'll remember me when the west wind moves upon the fields of barley
G------------|------------|------------|--------|--------|--------|
D------------|------------|------------|--------|--------|--------|
A--5-4-2-----|--2-0-------|--5-4-2---2-|--0-2---|--------|--5-5---|
E------------|------------|------------|--------|-3-3-3--|--------|


You'll forget the sun in his jealous sky as we walk in fields of gold
G------------|------------|------------|--------|--------|--------|
D------------|------------|------------|--------|--------|--------|
A--5-4-2-----|--2-0-------|--5-4-2-----|--2-0---|--------|--5-5---|
E------------|------------|------------|--------|-3-3-3--|--------|


Bridge
G--------|--------|--------|--|
D--------|--------|--------|--|
A--2---0-|--5---5-|--0---5-|--|
E--------|--------|--------|--|


VERSE 2:
So she took her love for to gaze awhile upon the fields of barley
G------------|------------|------------|--------|--------|--------|
D------------|------------|------------|--------|--------|--------|
A--5-4-2-----|--2-0-------|--5-4-2---2-|--0-2---|--------|--5-5---|
E------------|------------|------------|--------|-3-3-3--|--------|

In his arms she fell as her hair came down among the fields of gold
G------------|------------|------------|--------|--------|--------|
D------------|------------|------------|--------|--------|--------|
A--5-4-2-----|--2-0-------|--5-4-2-----|--2-0---|--------|--5-5---|
E------------|------------|------------|--------|-3-3-3--|--------|

VERSE 3:
Will you stay with me will you be my love among the fields of barley
G------------|------------|------------|--------|--------|--------|
D------------|------------|------------|--------|--------|--------|
A--5-4-2-----|--2-0-------|--5-4-2---2-|--0-2---|--------|--5-5---|
E------------|------------|------------|--------|-3-3-3--|--------|

We'll forget the sun in his jealous sky as we lie in fields of gold
G------------|------------|------------|--------|--------|--------|
D------------|------------|------------|--------|--------|--------|
A--5-4-2-----|--2-0-------|--5-4-2-----|--2-0---|--------|--5-5---|
E------------|------------|------------|--------|-3-3-3--|--------|


Bridge
G--------|--------|--------|--|
D--------|--------|--------|--|
A--2---0-|--5---5-|--0---5-|--|
E--------|--------|--------|--|


VERSE 4:
See the west wind move like a lover so upon the fields of barley
G------------|------------|------------|--------|--------|--------|
D------------|------------|------------|--------|--------|--------|
A--5-4-2-----|--2-0-------|--5-4-2---2-|--0-2---|--------|--5-5---|
E------------|------------|------------|--------|-3-3-3--|--------|

Feel her body rise when you kiss her mouth among the fields of gold
G------------|------------|------------|--------|--------|--------|
D------------|------------|------------|--------|--------|--------|
A--5-4-2-----|--2-0-------|--5-4-2-----|--2-0---|--------|--5-5---|
E------------|------------|------------|--------|-3-3-3--|--------|



I never made promises lightly and there have been some that I've broken
But I swear in the days still left
G--------|--------|--------|--------|--------|--------|--|
D--------|--------|--------|--------|--------|--------|--|
A--5---5-|--------|--5---5-|--------|--5---5-|--------|--|
E--------|--3---3-|--------|--3---3-|--------|--3---3-|--|

We'll walk in fields of gold   We'll walk in fields of gold
G--------|--------|--------|--------|--------|--|
D--------|--------|--------|--------|--------|--|
A--2-0---|----5-5-|--------|--2-0---|----5-5-|--|
E------3-|-3------|--------|------3-|-3------|--|


{ Guitar solo }
G------------|------------|------------|--------|--------|--------|
D------------|------------|------------|--------|--------|--------|
A--5-4-2-----|--2-0-------|--5-4-2---2-|--0-2---|--------|--5-5---|
E------------|------------|------------|--------|-3-3-3--|--------|

G------------|------------|------------|--------|--------|--------|
D------------|------------|------------|--------|--------|--------|
A--5-4-2-----|--2-0-------|--5-4-2-----|--2-0---|--------|--5-5---|
E------------|------------|------------|--------|-3-3-3--|--------|


VERSE 5: same as VERSE 1
Many years have passed since those summer days among the fields of barley
See the children run as the sun goes down among the fields of gold

VERSE 6: same as VERSE 1
You'll remember me when the west wind moves upon the fields of barley
You can tell the sun in his jealous sky when we walked in fields of gold


When we walked in fields of gold   When we walked in fields of gold

G--------|--------|---------|--------|--------|
D--------|--------|---------|--------|--------|
A--2---0-|--5---5-|---------|--2---0-|--5---5-|
E--------|--------|---------|--------|--------|

Ending softly

G---------|---------|--------|--------|---------|--------|------|--|
D---------|---------|--------|--------|---------|--------|------|--|
A--2-0-5--|--2-0-5--|--2-0-5-|--2-0-5-|--2-0-5--|-0---5--|---5--|--|
E---------|---------|--------|--------|---------|--------|------|--|
comments
We did not receive enough feedback on this tab! Please rate:
print report bad tab
1 2 3 4 5
I want to post or [tab]
guest
You may want to rate the tab now too:
select rating
Please do not post tabs as comments. Select "correction" instead!