Oops, an error
Loading. Please wait.
We have an official Fields Of Gold tab made by UG professional guitarists. Check out the tab »
×
by Sting
11,618 views 12 this week
2 commentsread comments
1 2 3 4 5
x 3
add to favorites
×
Save as Personal and add changes to this tab that will be seen only by you. Learn more ›
×
You can save this tab as Personal to edit and correct it or add notes. All changes will be seen only by you. Learn more »
launch autoscroll
font size
0
reset
how to read this tab
guitar tuner
backing track
0:00
0:00
edit
Autoscroll
slow
fast
+/-
esc
set tempo
stop
Sting - Fields of Gold
Drop D.

This version is as done by this chap: http://www.youtube.com/watch?v=HTwfTMBB-H0

             ^  
|----------------|----------------|----------------|----------------|----------------|
|------------7---|-7--------------|----------------|----------------|----------------|
|------------7---|-7--------------|----------------|----------------|----------------|
|------------7---|-7--------------|----------------|----------------|----------------|
|------------7---|-2--x--2---2--0-|-2---x-2---2--0-|-2---x-2---2--0-|-2---x-2---2--0-|
|------------0---|----------------|----------------|----------------|----------------|


|-------------------|-------------------|-------------------|----------------|
|--3-3-3-3----------|--2-2-2-2----------|--0-0-0-0----------|-----------3-2--|
|-------------------|-------------------|-------------------|-----------2-0--|
|-------------------|-------------------|-------------------|----------------|
|-2------x-2---2--0-|-2------x-2---2--0-|-2------x-2---2--0-|-2---x-2--------|
|-------------------|-------------------|-------------------|----------------|


|------------------|--------------------|------------------|-----------------|
|-0------------3-2-|-0-----0--0-----0---|-0----------------|------------3p2--|
|---2-2-2-2------0-|---2-2-2----------2-|-2---2-2-2--------|---2-2---2--2----|
|-------0---0------|-0----------0h2-4---|---0-0------2/2/4-|-4-0---4-4-------|
|-2---x------------|--------------------|---------0----2/4-|-----0-----------|
|---------4--------|-5---x----0---------|-5----------------|-0---------------|

                                                          v
|------------------|------------------|-----------------|-10-------------------|
|-0------------3-2-|-0----------------|-----------------|-12-------12-------12-|
|---2-2-2-2------0-|---2-2-2-2--------|-0---------0-----|-11----11-------11-11-|
|-------0---0--0---|-0-----0----0h2h4-|---4-4-4-4-2p0---|-----9--------9-------|
|-2---x------------|------------------|-------0-------0-|----------------------|
|---------4--------|-5---x---0--------|-5-------2-------|-9--------------------|


|---------10p9--------------|-------------------10-|----------------|-----------------|
|-12------------12-10-10----|-10--------------8----|-7-----7----3-2-|-0-----------3-2-|
|------11----------------12-|-11-----11-11----9----|------------2-0-|---2-2-2-2-----0-|
|----9----------------9--9--|------0-0--------7----|-----0----------|-------0---0-----|
|---------------------------|----0---------0--0----|---0------------|-2---------------|
|-9-------------------------|-0---------0----------|-0--------------|-----x---4-------|


|--------------------|------------------|-----------------|------------------|
|-0-----0--0---------|-0----------------|------------3p2--|-0------------3-2-|
|---2-2-2----------2-|-2---2-2-2--------|---2-2---2--2----|---2-2-2-2------0-|
|-0----------0h2-4---|---0-0------2/2/4-|-4-0---4-4-------|-------0---0--0---|
|--------------------|---------0--------|-----0-----------|-2---x------------|
|-5---x----0---------|-5------------2/4-|-0---------------|---------4--------|


|-0---------------|---------------|---------------|------------------|
|---2-2-2-2-----0-|-0-------------|-----------3-2-|-0------------3-2-|
|-------0---------|---------------|-----------2-0-|---2-2-2-2------0-|
|-0-----------4---|---4-4-4-2p0-0-|-0-------------|-------0---0------|
|-----------0-0---|-------0-------|---------------|-2---x------------|
|-5---x---0-------|-5-------------|-0----0--------|---------4--------|


|-------------------------|-------------------|-------------------|
|-0-----0-0---------------|-0-----------------|-------------3-3p2-|
|---2-2-2---------------2-|-2---2-2-2---------|---2-2-------2-----|
|-0---------------0h2h4---|---0-0-----2---2/4-|-4-0-0-------------|
|-----------0h2h4---------|---------0---------|-------0---0-------|
|-5---x---0---------------|-5-----------------|-0-------0---------|

                                                             v
|-0----------------|-----------------|---------------------|-10----------------|
|---2---2-2----3-2-|-2p0-------------|-0---------0---------|-12-----12------12-|
|-------0---0----0-|-----2-2-2-------|---4-4-4-4-2--2-0----|-11---11-----11-11-|
|------------------|-0-----0---0h2-4-|-------0-----------0-|----9------9-------|
|-2----------------|-----------------|---------------------|-------------------|
|-----x---4--------|-5-------0-------|-5-------2-----------|-9-----------------|


|---------10p9-------------|------------------10-|----------------|-----------------|
|-12-----------12-10-10-12-|-10-------------8----|-7-----7----3-2-|-0-----------3-2-|
|------11------------9--9--|-11-----11-11---9----|------------2-0-|---2-2-2-2-----0-|
|----9---------------------|------0-0-------7----|-----0----------|-------0---0-----|
|--------------------------|----0---------0-0----|---0------------|-2---------------|
|-9------------------------|-0---------0---------|-0--------------|-----x---4-------|


|-------------------|-----------------|----------------|------------------|
|-0-----0-0---------|-0---------------|------------3p2-|-0------------3-2-|
|---2-2-2---------2-|-2---2-2-2-------|---2-2---2--2---|---2-2-2-2------0-|
|-0---------0h2-4---|---0-0-----2/2/4-|-4-0---4--------|-------0---0------|
|-------------------|---------0-------|-----0----------|-2----------------|
|-5---x---0---------|-5-----------2/4-|-0--------------|-----x---4--------|


|-----------------|---------------|----------------|----5---5-5-5----|-7-5-5-5----5---|
|-0---------------|---------------|----------------|----5---5-5-5----|-5-5-5-5-7--5---|
|---2-2-2-2-----0-|-0-------------|----------------|----7---7-7-7-7--|-7-7-7-7-7--7---|
|-0-----0-----4---|---4-4-4-2p0-0-|-0--------------|-----------------|----------------|
|-----------0-0---|-------0-------|----------------|------5-5-----0--|---------0----0-|
|-5---x---0-------|-5-------------|-0-----0------4-|-5---------------|-0--------------|


|---5---5-5-5---|-7-5-5-5--------|----------------|-------------|----------10-9-|
|---5---5-5-5---|-5-5-5-5-7--5-7-|-8--7-5-5-------|-------------|---------------|
|---7---7-7-7-7-|-7-7-7-7-7--7---|-7--7-7-7-7-6-7-|-7-----------|---------------|
|---------------|----------------|----------------|-------------|---------------|
|-----5-5-----0-|---------0------|----------------|-------------|---------------|
|-5-------------|-0--------------|-5--------------|-0---0-0-----|-0---0---------|


|-7--------------10-9-|-7-5-5-5-----0-2-|-3--2-0-0-----0--|-0-2-2-----------10-9-|
|-7-10-10-10----------|-5-5-5-7---------|-3--3-3-3-3---3--|-3-3-3----------------|
|-7-7--7--7-----------|-7-7-7-7---------|-0----0-0-0------|---2-2----------------|
|---7--7--7-----------|-----------------|------------2----|-----------0-0--------|
|---------------------|-----------0-----|--------0--------|-----0h2h4------------|
|-9----x-----9-7------|-5---x---0-------|-2---------------|-0-------------0------|


|-7--------------10-9-|-7-5-5-5-----0-2-|-3--2-0-0--------|-------------|
|-7-10-10-10----------|-5-5-5-7---------|-3--3-3-3-3---3--|-3-------3-2-|
|-7-7--7--7-----------|-7-7-7-7---------|-0----0-0-0------|---------2-0-|
|---7--7--7-----------|-----------------|------------2----|-------------|
|---------------------|-----------0-----|--------0--------|-------------|
|-9----x-----9-7------|-5---x---0-------|-2---------------|-0---0-------|


|-----------------|-------------------|-----------------|----------------|
|-0-----------3-2-|-0-----0-0-----0---|-0---------------|------------3p2-|
|---2-2-2-2-----0-|---2-2-2---------2-|-2---2-2-2-------|---2-2---2--2---|
|-------0---0-----|-0---------0h2-4---|---0-0-----2/2/4-|-4-0---4-4------|
|-2---------------|-------------------|---------0-------|-----0----------|
|-----x---4-------|-5---x---0---------|-5-----------2/4-|-0--------------|


|-----------------|-----------------|-----------------|---------------|
|-0-----------3-2-|-0---------------|-----------------|-----------3-2-|
|---2-2-2-2-----0-|---2-2-2-2-------|-0---------0-----|-----------2-0-|
|-------0---0-----|-0-----0---0h2h4-|---4-4-4-4-2p0-0-|-0-------------|
|-2---------------|-----------------|---------0-------|---------------|
|-----x---4-------|-5---x---0-------|-5---------------|-0----0--------|


|-----------------|-------------------------|--------------------|----------------|
|-0-----------3-2-|-0-----0-0---------------|-0------------------|----------------|
|---2-2-2-2-----0-|---2-2-2---------------2-|-2---2-2-2----------|----------------|
|-------0---0-----|-0---------------0h2-4---|---0-0-----2----2/4-|----------------|
|-2---------------|-----------0h2h4---------|---------0----------|----------------|
|-----x---4-------|-5---x---0---------------|-5------------------|----------------|


|-------------------|-----------------|-----------------|-------------------|
|-------------3-3p2-|-0-----------3-2-|-2p0-------------|-0---------0-------|
|---2-2-------2-----|---2---2-2-----0-|-----2-2-2-------|---4-4-4-4-2-2p0---|
|-4-0-0-------------|-------0---0-----|-0-----0---0h2-4-|-------0---------0-|
|-------0---0-------|-2---------------|-----------------|-------------------|
|-0-------0---------|-----x---4-------|-5-------0-------|-5-------2---------|


||----------------|------------------||--------------|
||----------------|------------------||--------------|
||*---------------|-0---------------*||--------------|
||*--0--------2-4-|---4-4-4-4-2p0-0-*||--0-----------|
||----------------|---------0--------||--------------|
||---0---0--------|-5----------------||--0-----------|


            
            
Suggest correction
Creating personal tab
Creating personal tab
You can edit any tab online and save it as your Personal.

You can edit, replace or remove any tab part or add personal notes – all changes will be seen only by you.

Personal tabs can be accessed anytime from any device, even offline.
Learn more »
Give kudos to tab author, rate the tab!
1 2 3 4 5
comments
print report bad tab
2 comments total.
0 reply
skaterbillx 11 Oct 18, 2013 02:25 PM

he must have a huge pinky to play the powerchord 2 all the way to the 7th fret lol

0 reply
rrhowe321 10 Oct 07, 2016 05:04 PM

Thats not a powercord - its harmonics :) - you can see it on the video...

guest
Wanna post a correction for this tab? Suggest correction