Oops, an error
Loading. Please wait.

Fill Her Up Bass Tab

548 views 3 this week
no commentswrite comment
1 2 3 4 5
please rate
add to favorites
launch autoscroll
font size
0
reset
guitar tuner
Tab Pro tools
  • play this tab
  • loop segment
  • change instrument
  • show fretboard
  • metronome
×
Best way to learn
"Fill Her Up"
Autoscroll
slow
fast
+/-
esc
set tempo
stop
Contributor
Difficulty
advanced
Artist|Sting.
Song|Fill Her Up.
Album|Brand New Day.
Tabbed By|Toneie.

Intro|
 A    D    A    D     A    E    Gmaj7
G|----|----|----|----2|----|----|----|----|
D|----|0-24|----|0-24-|----|--2-|--5-|5---|
A|0-24|----|0-24|-----|0-24|----|----|----|
E|----|----|----|-----|----|0---|3---|--2-|

Verse,1|
 A    D    A    D    A    D    E         A    D
G|----|----|----|----|----|----|----|----|----|----|
D|----|0-24|----|0-24|----|0-24|2---|----|----|0-24|
A|0-24|----|0-24|----|0-24|----|--2-|----|0-24|----|
E|----|----|----|----|----|----|----|0-24|----|----|

 A    D     A    E    G7
G|----|-----|----|----|----|----|
D|----|00-24|----|----|----|5---|
A|0-24|-----|0-24|----|--5-|----|
E|----|-----|----|0-0-|3---|--1-|

Verse,2,3,4|
 A    D9    A    D9   A    D9   E9        A    D9   A    D9
G|----|----2|----|----|----|----|----|----|----|----|----|-----|
D|----|0-24-|----|0-24|----|0-24|2---|----|----|0-24|----|00-24|
A|0-24|-----|0-24|----|0-24|----|--2-|----|0-24|----|0-24|-----|
E|----|-----|----|----|----|----|----|0-24|----|----|----|-----|

End Of Verse,2|           End Of Verse,3,4(into chorus)|
 A    E9   G9               A    E9   C6/9
G|----|----|----|----|      G|----|----|----|----|
D|----|----|----|5---|      D|----|--2-|----|----|
A|0-24|----|--5-|----|      A|0-0-|----|3-3-|3-3-|
E|----|0-0-|3---|--1-|      E|----|0---|----|----|

Chorus|
 G    D/F# A         G    D/F# A         G    D/F#
G|----|----|----|----|----|----|----|----|----|----|
D|----|----|----|----|----|----|----|----|----|----|
A|----|----|0---|0---|----|----|0---|0---|----|----|
E|3-3-|2-2-|--0-|--02|3-3-|2-2-|--0-|--02|3-3-|2-2-|

End Of Chorus,1|  End Of Chorus,2(and the song loses most instruments)|
 E                 E         G         D/F#      Bm7   A/C# D
G|----|----|      G|----|----|----|----|----|----|----|----|----|
D|----|----|      D|----|----|----|----|----|----|----|----|----|
A|----|----|      A|0---|0---|----|----|----|----|2---|2-4-|5---|
E|0-0-|0-02|      E|--0-|--02|3---|3---|2---|2---|----|----|----|

 G    A    Bm  A/C#  D/F# G      D/F# E  Em
G|----|----|----|----|----|----|----|----|----|
D|----|----|----|----|----|----|----|----|----|
A|----|----|2-4-|4---|----|----|----|----|----|
E|3---|5---|----|----|2---|3---|3-2-|0---|0---|

Then A Change In Timing(7/8)For The Rest Of The Song|
 G    D/F# A    D/F#    Choir starts play 4 times   (play 5th time)
G|----|----|----|----|  ||:----|----|----|----:||   G|----|--------|  
D|----|----|----|----|  ||:----|----|----|----:||   D|----|--------|
A|----|----|----|----|  ||:----|----|----|----:||   A|----|55555555|
E|3--3|2--2|5--5|2--2|  ||:3--3|2--2|5--5|2--2:||   E|5--5|--------|

Then The Instruments Return And it Rocks(still in 7/8 time!)|
  G          D          (x3 A         D        )  (4th time)
G||:---------|----------||---------|---------:|| G|---------|---------|
D||:---------|----------||---------|---------:|| D|---------|---------|
A||:-------24|55-5-555--||---------|55-5-55--:|| A|---------|---------|
E||:3333333--|--5-5---23||555555555|--5-5--22:|| E|555555555|555555555|

 A7sus4(x2)
G||:---------|----------:||
D||:---------|----------:||
A||:---------|----------:||
E||:555555555|5055050505:||

Instrumental To Fade|
  A7sus4
G||:----4------:||
D||:--77-------:||
A||:-7-----75--:||
E||:5-----0---8:||

A Printer Would Be Very Handy For This Bass Tab!
So So So Long,Starts In The Key Of A In 4/4 Time,Many Accidentals,
Finish`s In 7/8 Time With No Sharps Or Flats,
And It Would Make A Lot More Sense If You Had It Down On Paper
And Had The Track Because Of The Strange(Sting)Style!

comments
We did not receive enough feedback on this tab! Please rate:
print report bad tab
1 2 3 4 5
I want to post or [tab]
guest
You may want to rate the tab now too:
select rating
Please do not post tabs as comments. Select "correction" instead!