Oops, an error
Loading. Please wait.

Fragile Bass Tab

version 1
version 1

Whole song

Interactive

6,054 views 9 this week
no commentswrite comment
1 2 3 4 5
accurate
x 5
add to favorites
launch autoscroll
font size
0
reset
guitar tuner
Autoscroll
slow
fast
+/-
esc
set tempo
stop
Help us to improve Ultimate-Guitar.com Take our survey!
×
Author
Artist: Sting
Song:   Fragile
Album:  Nothing Like The Sun

(Tabbed by Oli - oli@elepost.de)


*******************************************************************
This tablature is a helping sketch. It doesn’t contain the correct
sort of bars and notes. Nevertheless, I'm sure you'll be able to
figure out and I hope it will help you! - Oli
*******************************************************************


Best played is "Fragile" with a mighty bass sound (as you might
hear and feel it in cinema) by using just the "E"-String. Turn up
the volume and pop the string on every note with the side of your
thumb with "gentle force" - very softly, but audible.


  INTRO:
G|------------------------------------------------------------|
D|------------------------------------------------------------|
A|------------------------------------------------------------|
E|--5~~~~~~~~~~~~0~~~~~~~~~~~~5~~~~~~~~~~~~-------------------|


  MAIN RIFF THROUGHOUT THE WHOLE SONG:
G|------------------------------------------------------------|
D|------------------------------------------------------------|
A|------------------------------------------------------------|
E|--00~~~~~~~~~~~~55~~~~~~~~~~~~77~~~~~~~~~~~~00~~~~~~~~~~~~--|


  OUTRO:
G|---------------------------------------------------------------|
D|---------------------------------------------------------------|
A|---------------------------------------------------------------|
E|--00~~~00~~~00~~~00~~~-----------------------------------------|
  How fragile we are, how fragile we are...

  (INSTRUMENTAL)
G|------------------------------------------------------------|
D|------------------------------------------------------------|
A|------------------------------------------------------------|
E|--0~~~~~~5~~~~~~0~~~~~~5~~~~~~0~~~~~~5~~~~~~----------------|


  FADE OUT:

   | Insert these bass tabs during     | LAST ORIGINAL "E"
   | the last chords of the harp       | OF THE BASS
G|---------------9~--/16--------------------------------------|
D|-------------9~---------------------------------------------|
A|-----------7~-----------------------------------------------|
E|--0~~~~~~~~~~~~~~~~~~~~~~~~~~~~~~~~~~~0~~~~~~~~~~~~~~~~~~~~-|
Suggest correction
comments
print report bad tab
guest
You may want to rate the tab now too:
select rating
Please do not post tabs as comments. Select "correction" instead!