Oops, an error
Loading. Please wait.

Fragile Tab

version 1
version 1

Whole song

Interactive

Video

141,793 views 324 this week
3 commentsread comments
1 2 3 4 5
excellent!
x 23
add to favorites
launch autoscroll
font size
0
reset
how to read this tab
guitar tuner
Autoscroll
slow
fast
+/-
esc
set tempo
stop
Help us to improve Ultimate-Guitar.com Take our survey!
×
[Part I (Intro)]

e|------7p5--5h7--I-----7p5--5h7--7p5--5h7--7p5h7\0--I---|
B|---5------------I--5-------------------------------I---|
G|----------------I----------------------------------I---|
D|----------------I----------------------------------I---|
A|----------------I----------------------------------I---|
E|----------------I----------------------------------I---|


e|------7p5--5h7--I-----7p5--5h7--7p5--5h7--I---|
B|---5------------I--5----------------------I---|
G|----------------I-------------------------I---|
D|----------------I-------------------------I---|
A|----------------I-------------------------I---|
E|----------------I-------------------------I---|


[Part II]

e|------------------------I-----------------------------I---|
B|---12---------10-----8--I--12--12-----8--------7--5---I---|
G|------------------------I-----------------------------I---|
D|---12-----10---------9--I--12--12-----9-----7-----5---I---|
A|------------------------I----------0-----0--------0---I---|
E|----0--0----------0-----I---0---0---------------------I---|


e|---------------------------------I--------------------I---|
B|---8--8--8--------7--5--5--4--4--I--7--------5--8--8--I---|
G|---------------------------------I--------------------I---|
D|---9--9--9-----7-----5--5--4--4--I--7-----5-----9--9--I---|
A|---0--0--------------------------I--------------------I---|
E|---------7--7--------7--7--7--7--I--0--0--------0--0--I---|


e|-----------12------------------------I-------------------------I---|
B|---12--12------12---------10--8--8---I--12--12--8--------7--5--I---|
G|-------------------------------------I-------------------------I---|
D|---12--12-------------10------9--9---I--12--12--9-----7-----5--I---|
A|-------------------------------------I----------0--0--------0--I---|
E|----0---0----------0----------0--0---I---0---0-----------------I---|


e|------------------------------------------I-----------------I---|
B|---8--8--8-----8--8--------7--5--5--4--4--I--7--------8--5--I---|
G|------------------------------------------I-----------------I---|
D|---9--9--9-----9--9-----7-----5--5--4--4--I--7-----9-----5--I---|
A|---0--0-----------------------------------I-----------------I---|
E|---------7--7--------7--------7--7--7--7--I--0--0--------0--I---|


{ Play part II again once for each of the following verses: }

If blood will flow when flesh and steel are one
Drying in the colour of the evening sun
Tomorrow's rain will wash the stains away
But something in our minds will always stay

Perhaps this final act was meant to clinch a lifetime's argument
That nothing comes from violence and nothing ever could
For all those born beneath an angry star
Lest we forget how fragile we arePart III:

{ Lyrics for this part: }

On and on the rain will fall
Like tears from a star   like tears from a star
On and on the rain will say
How fragile we are   how fragile we are


e|------------------------I--------------------I-----------------------I---|
B|---10--10--10--------8--I--8--8--8--------7--I--8--7--7--5--5-----5--I---|
G|------------------------I--------------------I-----------------------I---|
D|---10--10--10-----9-----I--9--9--9-----7-----I--9--7--7--5--5--5-----I---|
A|----0---0---0-----------I--------------------I-----------------------I---|
E|---------------7--------I--7--7--7--7--------I--0--0--0--0--0--------I---|


e|------------------I-----------I---|
B|---7--8--7--7--5--I--5--7--8--I---|
G|------------------I-----------I---|
D|---7--9--7--7--5--I--5--7--9--I---|
A|------------------I-----------I---|
E|---0--0--0--0--0--I--0--0--0--I---|


e|------------------------I-----------------I-----------------------I---|
B|---10--10--10--------8--I--8--8--8--------I--8--7--7--5--5-----5--I---|
G|------------------------I-----------------I-----------------------I---|
D|---10--10--10-----9-----I--9--9--9-----7--I--9--7--7--5--5--5-----I---|
A|----0---0---0-----------I-----------------I-----------------------I---|
E|---------------7--------I--7--7--7--7-----I--0--0--0--0--0--------I---|


e|------------------I---|
B|---7--8--7--7--5--I---|
G|------------------I---|
D|---7--9--7--7--5--I---|
A|------------------I---|
E|---0--0--0--0--0--I---|


[Part IV (Solo)]

e|------7p5--5h7---I-----7p5--5--7--8--10--7--7\0--I----------------------I---|
B|---5-------------I--5----------------------------I--8--5--7--8--5--7\0--I---|
G|-----------------I-------------------------------I----------------------I---|
D|-----------------I-------------------------------I----------------------I---|
A|-----------------I-------------------------------I----------------------I---|
E|-----------------I-------------------------------I----------------------I---|


e|------------5--7--8--10--7--8--5--7-----5--7\0--I---|
B|---5--7--8---------------------------8----------I---|
G|------------------------------------------------I---|
D|------------------------------------------------I---|
A|------------------------------------------------I---|
E|------------------------------------------------I---|


e|-------12--14--15--15--14--12--I--14--15--14--14--12\11------I---|
B|---12--------------------------I-------------------------12--I---|
G|-------------------------------I-----------------------------I---|
D|-------------------------------I-----------------------------I---|
A|-------------------------------I-----------------------------I---|
E|-------------------------------I-----------------------------I---|


e|---12\11------12--I-----I---|
B|----------12------I-5---I---|
G|------------------I-----I---|
D|------------------I-----I---|
A|------------------I-----I---|
E|------------------I-----I---|


e|-------7---5---7---8---7---5-------I-----------------5---7---5-------------I--|
B|---5---------------------------8---I-7---5---7---8---------------8---7---5-I--|
G|-----------------------------------I---------------------------------------I--|
D|-----------------------------------I---------------------------------------I--|
A|-----------------------------------I---------------------------------------I--|
E|-----------------------------------I---------------------------------------I--|


e|---------------5---5\0---I---------3---2---2/3\2---I----7---5---7---8---7---I-|
B|---5---7---8-------------I-----5-------------------I-5----------------------I-|
G|-------------------------I-4-----------------------I------------------------I-|
D|-------------------------I-------------------------I------------------------I-|
A|-------------------------I-------------------------I------------------------I-|
E|-------------------------I-------------------------I------------------------I-|

 (Use your thumb on this part)
e|---8---8---8---7---7---5---5-----------------------I---|
B|-------------------------------8---8---7---5---7---I---|
G|---------------------------------------------------I---|
D|---------------------------------------------------I---|
A|---------------------------------------------------I---|
E|---------------------------------------------------I---|


e|-------7---5---7---8---7---5-----------I-------------------------------I---|
B|---5---------------------------8---7---I---8---7---8---7---8---7---5---I---|
G|---------------------------------------I-------------------------------I---|
D|---------------------------------------I-------------------------------I---|
A|---------------------------------------I-------------------------------I---|
E|---------------------------------------I-------------------------------I---|


[Part V]

{ Lyrics for this part: }

On and on the rain will fall
Like tears from a star   like tears from a star
On and on the rain will say
How fragile we are   how fragile we are
How fragile we are   how fragile we are


e|------------------------I--------------------I-----------------------I---|
B|---10--10--10--------8--I--8--8--8--------7--I--8--7--7--5--5-----5--I---|
G|------------------------I--------------------I-----------------------I---|
D|---10--10--10-----9-----I--9--9--9-----7-----I--9--7--7--5--5--5-----I---|
A|----0---0---0-----------I--------------------I-----------------------I---|
E|---------------7--------I--7--7--7--7--------I--0--0--0--0--0--------I---|


e|------------------I-----------I---|
B|---7--8--7--7--5--I--5--7--8--I---|
G|------------------I-----------I---|
D|---7--9--7--7--5--I--5--7--9--I---|
A|------------------I-----------I---|
E|---0--0--0--0--0--I--0--0--0--I---|


e|------------------------I--------------------I-----------------------I---|
B|---10--10--10--------8--I--8--8--8--------7--I--8--7--7--5--5-----5--I---|
G|------------------------I--------------------I-----------------------I---|
D|---10--10--10-----9-----I--9--9--9-----7-----I--9--7--7--5--5--5-----I---|
A|----0---0---0-----------I--------------------I-----------------------I---|
E|---------------7--------I--7--7--7--7--------I--0--0--0--0--0--------I---|


e|------------------I---|
B|---7--8--7--7--5--I---|
G|---------------5--I---|
D|---7--9--7--7--5--I---|
A|------------------I---|
E|---0--0--0--0--0--I---|


e|------------------I-----------------I---|
B|---7--8--7--7--5--I--7--8--7--7--5--I---|    Play these last two bits again
G|------------------I--------------5--I---|  6 times, singing ( fading ):
D|---7--9--7--7--5--I--7--9--7--7--5--I---|    "how fragile we are"
A|------------------I--------------0--I---|
E|---0--0--0--0--0--I--0--0--0--0-----I---|


[Part VI]

e|------7p5--5h7--I-----7p5--5h7--7p5--5h7/12--I-----7p5--5h7--I---|
B|---5------------I--5-------------------------I--5------------I---|
G|----------------I----------------------------I---------------I---|
D|----------------I----------------------------I---------------I---|
A|----------------I----------------------------I---------------I---|
E|----------------I----------------------------I---------------I---|

                                 -> Play this as fast as you can
e|----------------------------I--------------------------------------I---|
B|----------------------------I--------------------------------------I---|
G|---4--5-----4---------------I--------------------------------------I---|
D|---------7-----5--7--4--5---I-----4--5-----4--5--7--4--5--7--4--5--I---|
A|----------------------------I--7--------7--------------------------I---|
E|----------------------------I--------------------------------------I---|

                                                              until here <-
e|---------------------------------------I-----------------------------------I--|
B|---------------------------------------I-----------------------------------I--|
G|---------------------------------------I--------------------------------4--I--|
D|------4--5-----4--5-----4--5-----4--5--I-----4--5-----4--5-----4--5--7-----I--|
A|---7--------7--------7--------7--------I--7--------7--------7--------------I--|
E|---------------------------------------I-----------------------------------I--|


e|------7p5--5h7--I--12--I---|
B|---5------------I------I---|
G|----------------I------I---|
D|----------------I------I---|
A|----------------I------I---|
E|----------------I--0---I---|Notation:

X\Y - Play fret X, slide down to fret Y
X/Y - Play fret X, slide up to fret Y
XhY - Play fret X and immediatly hammer-on to fret Y
XpY - Play fret X and immediatly pull-off to fret Y


Note:   Play parts II, III, V and VI using mostly Am (002210) and D7
      (000212) finger patterns to guide your left hand.
        It is often easier to press some extra strings than pressing only
      the ones you actually pick.



************************************

| h  Hammer-on
| p  Pull-off
| /  Slide up
| \  Slide down

************************************
comments
print report bad tab
3 comments total.
0 reply
MrLuc 146 wrote on September 1 2005, 12:00 am

I´m sorry, but this tab is wrong in some parts like the beguining of the second part, forth part and solo.

0 reply
tordajav 5,609 wrote on October 29 2007, 02:20 pm

Man, its great work!!! Awesome!
I wish only if you could add the first two acords at the begining and at the end... I hear something in song, like a waves, maybe its bass guitar, it would be great if you post them, if you know what I mean!
Anyway, THANKS, it sounds nice on my acoustic guitar.
Hello from Serbia!

0 reply
GuitarJo 73 wrote on February 18 2008, 08:43 am

i think the intro is easier like this(of course)




e|0--7-5-7----0--7-5-7--And-so-on...
b|--------------------------------------------------------------------|
g|--------------------------------------------------------------------|
d|--------------------------------------------------------------------|
a|--------------------------------------------------------------------|
e|--------------------------------------------------------------------|

I want to post or [tab]
guest
You may want to rate the tab now too:
select rating
Please do not post tabs as comments. Select "correction" instead!