Oops, an error
Loading. Please wait.

Fragile Ukulele

version 1
version 1

Whole song

  • Real ukulele version / original key / complete cho... Show more

Interactive

by Sting
346 views 36 this week
no commentswrite comment
1 2 3 4 5
x 3
add to favorites
×
Save as Personal and add changes to this tab that will be seen only by you. Learn more ›
×
You can save this tab as Personal to edit and correct it or add notes. All changes will be seen only by you. Learn more »
save as personal
new!
launch autoscroll
font size
0
reset
transpose
0
reset
simplify chords
display chords
guitar tuner
backing track
0:00
0:00
Autoscroll
slow
fast
+/-
esc
set tempo
stop
Author
Difficulty
Key
maguri [tm] 30,595
intermediate
Em
About this tab version
Real ukulele version / original key / complete chords for the whole song / suggestions for playable voicings./ tabs for intro/coda melody and verse pattern / https://www.youtube.com/watch?v=EmDQFWNjHpA. Was this info helpful? Yes No
Strumming
There is no strumming pattern for this song yet. and get +5 IQ
---------------------------------------------------------------------------
          Fragile – Sting
---------------------------------------------------------------------------
Tabbed by: maguri
Tuning: soprano C

Sting
Fragile (1988)
(Sting)

From: "... Nothing like the Sun"

---------------------------------------------------------------------------

If you're playing with a second player, these tabs can be used for the 
lead ukulele.

[Intro 1] (freely)
    Esus4   A                       Bm7         A 

A  |2p0-2--------2p0-2---2p0-2-2p0------2-0-2-------2p0-2---2p0-0h2---|
E  |------------------------------------------------------------------|
C 4|----------4-----------------------4-----------4-------------------|
g  |------------------------------------------------------------------|


[Intro 2] and [Verse] pattern
                                           B7sus4
  Em7              Am7              B7+5        B7 | Emadd9  Em  
  1 + 2 + 3 + 4 +  1 + 2 + 3 + 4 +  1 + 2 + 3 + 4 +  1 + 2 + 3 + 4 +  
A|----------------|----------------|----------------|----------------|
E|3----2-0-0-3-3--|3----2-0-0-3-3--|3----2-0-0-2-2--|2----0-3--------|
C|----------------|4----2-0-0-4-4--|-----------3-3--|----------------|
g|4----2-0-0-4-4--|----------------|4----2-0-0------|2----0-4-----4--|

                                           B7sus4
  Em7              Am7              B7+5        B7 | Emadd9  Em  
  1 + 2 + 3 + 4 +  1 + 2 + 3 + 4 +  1 + 2 + 3 + 4 +  1 + 2 + 3 + 4 +  
A|----------------|----------------|----------------|----------------|
E|3----2-0-0-3-3--|3----2-0-0-3-3--|3----2-0-0-2-2--|2----3-0--------|
C|----------------|4----2-0-0-4-4--|-----------3-3--|----------------|
g|4----2-0-0-4-4--|----------------|4----2-0-0------|2----4-0--------|


[Chorus]
  C6               B7+5             Em               Em
  1 + 2 + 3 + 4 +  1 + 2 + 3 + 4 +  1 + 2 + 3 + 4 +  1 + 2 + 3 + 4 +  
A|3----2-3--------|2----0-2--------|2--0-0----------|2--0-0----------|
E|0----0-0--------|3----2-3--------|0--0-0-3--------|0--0-0-3--------|
C|0----0-0--------|3----3-3--------|4--4---4--------|4--4---4--------|
g|2----0-2--------|2----2-2--------|0--0---0--------|0--0---0--------|


[Coda] (freely)
    Esus4   A                       Bm          A 
A  |2p0-2--------2p0-2---2p0-2-2p0------2-0-2-------2p0-2---2p0-0h2---|
E  |------------------------------------------------------------------|
C 4|----------4-----------------------4-----------4-------------------|
g  |------------------------------------------------------------------|

    Esus4   A                             Em* 
A  |2p0-2--------2p0-2---2p0-2-2p0----------------------|
E  |--------------------------------------+12-----------|
C 4|----------4-----------------------------------------|
g  |----------------------------------------------------|


*********************************** 

| p Pull-off
| h Hammer-on
| + Harmonic

 ***********************************

---------------------------------------------------------------------------

CHORDS

       g-C-E-A
Esus4  2-2-0-2

Em7    0-2-0-2
Am7    0-0-0-0
B7+5   2-3-3-2  = B7aug
B7sus4 2-4-2-2
B7     2-3-2-2
Em     0-4-0-2
Emadd9 0-4-2-2

C6     0-0-0-0

Bm7    2-2-2-2
Em*    0-4-7-7 (final chord only)

---------------------------------------------------------------------------

[Intro 1] (freely)
| Esus4 | A | Bm7 | A |

[Intro 2]
| Em7 | Am7 | B7+5   B7sus4 B7 | Emadd9 Em | 
| Em7 | Am7 | B7+5   B7sus4 B7 | Emadd9 Em | 


[Verse]
              Em7                  Am7
If blood will flow, when flesh and steel are one
B7+5          B7sus4 B7     Emadd9  Em
Drying in the colour of the evening sun
           Em7                Am7
Tomorrow's rain will wash the stains away
    B7+5             B7sus4     B7     Emadd9  Em
But something in our minds will always stay


[Verse]
   Em7                              Am7
Perhaps this final act was meant to clinch a lifetime's argument
     B7+5               B7sus4 B7        Emadd9       Em
That nothing comes from vio -  lence and nothing ever could
    Em7                             Am7
For all those born beneath an angry star
     B7+5          B7sus4  B7 Emadd9  Em
Lest we forget how fragile we are


[Chorus]
C6           B7+5 
On and on the rain will fall
     Em
Like tears from a star
     Em
Like tears from a star
C6           B7+5 
On and on the rain will say
    Em
How fragile we are
    Em
How fragile we are


[Solo]
| Em7 | Am7 | B7+5   B7sus4 B7 | Emadd9 Em | 
| Em7 | Am7 | B7+5   B7sus4 B7 | Emadd9 Em | 

| Em7 | Am7 | B7+5   B7sus4 B7 | Emadd9 Em | 
| Em7 | Am7 | B7+5   B7sus4 B7 | Emadd9 Em | 


[Chorus]
C6           B7+5 
On and on the rain will fall
     Em
Like tears from a star
     Em
Like tears from a star
C6           B7+5 
On and on the rain will say
    Em
How fragile we are
    Em
How fragile we are

    Em
How fragile we are
    Em
How fragile we are


[Coda]
| Esus4 | A | Bm | A |
| Bm7 | A | Em *
Suggest correction
Give kudos to tab author, rate the tab!
1 2 3 4 5
comments
print report bad tab
guest
You may want to rate the tab now too:
select rating
Wanna post a correction for this tab? Suggest correction