Oops, an error
Loading. Please wait.

Fragile Tab

version 2
version 2

Whole song

Interactive

Video

12,930 views 6 this week
no commentswrite comment
1 2 3 4 5
please rate
add to favorites
launch autoscroll
font size
0
reset
how to read this tab
guitar tuner
Autoscroll
slow
fast
+/-
esc
set tempo
stop
Help us to improve Ultimate-Guitar.com Take our survey!
×
#----------------------------------PLEASE NOTE---------------------------------#
#This file is the author's own work and represents their interpretation of the #
#song. You may only use this file for private study, scholarship, or research. #
#------------------------------------------------------------------------------##

                                FRAGILE REVISITED
                              As recorded by Sting

Transcribed by Sergio Saladino

Gtr I (E A D G B E) - 'Untitled'
Gtr II (E A D G B E) - 'Untitled'

    Q=89
   4/4
    Gtr I
    E S S +S  E S +S  E S +E  E
||--7---------5-3-(3)-3-7-(7)-0-|
||o---0-------------------------|
||--7---7-(7)-5-4-(4)-4-7-(7)-0-|
||------------------------------|
||o-----------------------------|
||--0------0-------0-------0----|
    Q      Q       Q       Q


  E S S +S  E S +S  E S +E  E   E S S +S  E S +S  E S +E  E
|-3---------2-0-(0)-0-3-(3)-0-|-3---------2-0-(0)-0---------|
|---0-------------------------|---0-----------------4-(4)-4-|
|-4---4-(4)-2-0-(0)-0-4-(4)-0-|-4---4-(4)-2-0-(0)-0---------|
|-----------------------------|---------------------4-(4)-4-|
|-0------0-------0-------0----|-2------2-------2-------2----|
|-----------------------------|-----------------------------|
  Q      Q       Q       Q      Q      Q       Q       Q


  E S S +S  E S +S  E S +E  E
|-2---------0-3-(3)---------0--||-|
|---0---------------0---------o||-|
|-2---2-(2)-0-4-(4)---4-(4)-0--||-|
|------------------------------||-|
|-----------------------------o||-|
|-0------0-------0-------0-----||-|
  Q      Q       Q       Q


    E S S +S  E S +S  E S +E  E   E S S +S  E S +S  E S +E  E
||--5---------3-5-(5)---------2-|-3---------2-3-(3)---------2-|-|
||o---0---------------0---------|---0---------------0---------|-|
||--5---5-(5)-4-5-(5)---5-(5)-2-|-4---4-(4)-2-4-(4)---4-(4)-2-|-|
||------------------------------|-----------------------------|-|
||o-0------0-------0-------0----|-2------2-------2-------2----|-|
||------------------------------|-----------------------------|-|
    Q      Q       Q       Q      Q      Q       Q       Q


                                1.
  E S S +S  E S +S  E S +E  E   E S S +S  E S +S  E S +S  S S S
|-3-3-------2-0-(0)---------2-|-3-3-------2-0-(0)---------0-2h3--||
|---0---------------0---------|---0---------------0-------------o||
|-4---4-(4)-2-0-(0)---0-(0)-2-|-4---4-(4)-2-0-(0)---0-(0)--------||
|-----------------------------|----------------------------------||
|-----------------------------|---------------------------------o||
|-0------0-------0-------0----|-0------0-------0-------0---------||
  Q      Q       Q       Q      Q      Q       Q       Q


  2.
  E S S +S  E S +S  E S +S  S S S
|-3-3-------2-0-(0)---------0-7p5-|
|---0---------------0-------------|
|-4---4-(4)-2-0-(0)---0-(0)-------|
|---------------------------------|
|---------------------------------|
|-0------0-------0-------0--------|
  Q      Q       Q       Q


    E S S +S  E S +S  E S +S  S S S
||--7-----------7-(7)---0-(0)-0-7p5-|
||o-----------5---------5-(5)-------|
||------0-(0)---------0-------------|
||----4-----------------------------|
||o---------------------------------|
||--0------0-------0-------0--------|
    Q      Q       Q       Q


  E S S +S  E S +S  E S +E  E   E S S +S  E S +S  E S +E  E
|-7---------8-5-(5)---------0-|-5-----------5-(5)-5----------|
|-----0-(0)---------0---------|-----------5---------7-(7)-7--|
|---5---------5-(5)---5-(5)-0-|-----5-(5)---5-(5)-5----------|
|-----------------------------|---9-----------------7-(7)-7--|
|-0------0-------0-------0----|------------------------------|
|-----------------------------|-7------7-------7-------7-----|
  Q      Q       Q       Q      Q      Q       Q       Q


  1.                                  2.
  E S S +S  E S +S  E S +S  S S S     E S S +S  E S +S  E S +S  S S S
|-5---------5-3-(3)---------0-7p5--||-5---------5-3-(3)---------0-3p2-|
|---0---------------0-------------o||---0---------------0-------------|
|-5---5-(5)-5-4-(4)---4-(4)--------||-5---5-(5)-5-4-(4)---4-(4)-------|
|----------------------------------||---------------------------------|
|---------------------------------o||---------------------------------|
|-0------0-------0-------0---------||-0------0-------0-------0--------|
  Q      Q       Q       Q            Q      Q       Q       Q


     E S S +S  E S +S  E S +S  S S S
||---3-----------3-(3)---------0-3p2---|
||o------0-(0)-----------0-(0)---------|
||-----5-------5-------5---------------|
||-------------------------------------|
||o--0------0-------0-------0----------|
||-------------------------------------|
     Q      Q       Q       Q


  E S S +S  E S +S  E S +S  S S S   E S S +S  E S +S  E S +S  S S S
|-3-----------2-(2)---------0-2p0-|-2-----------2-(2)---0-(0)---2p0-|
|-----0-(0)-----------0-(0)-------|-----------0---------0-(0)-------|
|---5-------5-------5-------------|-----0-(0)---------0-------0-----|
|---------------------------------|---4-----------------------------|
|-3------3-------2-------2--------|---------------------------------|
|---------------------------------|-0------0-------0-------0--------|
  Q      Q       Q       Q          Q      Q       Q       Q


  1.
  E S S +S  E S +S  E S +S  S S S
|-2---------2-3-(3)---------0-3p2--||
|-------------0-(0)-0-------------o||
|-----0-(0)-----------0-(0)--------||
|---4--------------------2---------||
|---------------------------------o||
|-0------0-------0-----------------||
  Q      Q       Q       Q


  2.
  E S S +S  E S +S  E S +S  S S S
|-2---------2-3-(3)---------------|
|-------------0-(0)-0-------0-1p0-|
|-----0-(0)-----------0-(0)-------|
|---4--------------------2--------|
|---------------------------------|
|-0------0-------0----------------|
  Q      Q       Q       Q


    E S S +S  E S +S  E S E E   E S S +S  E S +S  E S +E  E
||------0-(0)-3-7-(7)-----5-0-|-8---------7-5-(5)---------5-|
||o-1-----------------0-------|---0---------------7---------|
||----2---------7-(7)---7-5---|-----8-(8)-8-8-(8)---8-(8)-8-|
||----------------------------|------------------------7----|
||o-0------0-------0------0---|----------------0------------|
||----------------------------|-7------7--------------------|
    Q      Q       Q      Q     Q      Q       Q       Q


  E S S +S  E S +S  E S E E   E S S +S  E S +S  E S +E  E
|-7---------5-3-(3)-------3-|-5---------3-2-(2)-2-3-(3)-5-|
|-----5-(5)---5-(5)-5-------|---5-------------------------|
|---8-----------------4-3-4-|-----5-(5)-4-2-(2)-2-4-(4)-5-|
|-5------5------------------|-----------------------------|
|----------------3------3---|----------------2-------2----|
|---------------------------|-2------2--------------------|
  Q      Q       Q      Q     Q      Q       Q       Q


  E S S +S  E S +S  E S +S  E S
|-7---------7-----------------0--|
|---0---------0-(0)---------0----|
|-----7-(7)-----------5-(5)------|
|-------------------6------------|
|--------------------------------|
|-0------0-------0-------0-------|
  Q      Q       Q       Q


  E S S +S   E S +S  E S +S  E S
|-8---------10-5-(5)---------0---|
|-----8-(8)------------7-(7)---7-|
|---9----------------9-----------|
|-----------------0-------0------|
|-0------0-----------------------|
|--------------------------------|
  Q      Q        Q       Q


  E S S +S   E S +S  E S +S  E S   E S S +S  E S +S  E S +E  E
|-7---------10---------0-(0)---0-|-5---------3-2-(2)-2-3-(3)---|
|-----0-(0)----8-(8)---------8---|---5-----------------------0-|
|---7-------11-------------------|-----5-(5)-4-2-(2)-2-4-(4)---|
|-5------0-----------9-------9---|-----------------------------|
|--------------------------------|----------------2-------2----|
|-----------------8-------8------|-2------2--------------------|
  Q      Q        Q       Q        Q      Q       Q       Q


  1.                                2.
  E S S +S  E S +S  E S S S S S     E S S +S  E S +S  E S E E
|-0-----------------0------------||-0-----------------0---------|
|-------------0-(0)-------0-1-0-o||-------------0-(0)-----------|
|-----------0---------0----------||-----------0---------0-------|
|-----4-(4)-------------4--------||-----4-(4)-------------4-----|
|---2------------2--------------o||---2------------2--------2---|
|-0------------------------------||-0---------------------------|
  H              H                  H              H


    E S S +S  E S +S  E S +E  E   E S S +S  E S +S  E S +E  E
||--7---------5-3-(3)-3-7-(7)-0-|-3---------2-0-(0)-0-3-(3)-0----|
||o---0-------------------------|---0----------------------------|
||--7---7-(7)-5-4-(4)-4-7-(7)-0-|-4---4-(4)-2-0-(0)-0-4-(4)-0----|
||------------------------------|--------------------------------|
||o-----------------------------|-0------0-------0-------0-------|
||--0------0-------0-------0----|--------------------------------|
    Q      Q       Q       Q      Q      Q       Q       Q


  E S S +S  E S +S  E S +E  E   E S S +S  E S +S  E S +E  E
|-3---------2-0-(0)-0---------|-2---------0-3-(3)---------0--||-|
|---0-----------------4-(4)-4-|---0---------------0---------o||-|
|-4---4-(4)-2-0-(0)-0---------|-2---2-(2)-0-4-(4)---4-(4)-0--||-|
|---------------------4-(4)-4-|------------------------------||-|
|-2------2-------2-------2----|-----------------------------o||-|
|-----------------------------|-0------0-------0-------0-----||-|
  Q      Q       Q       Q      Q      Q       Q       Q


    E S S +S  E S +S  E S +E  E   E S S +S  E S +S  E S +E  E
||--5---------3-5-(5)---------2-|-3---------2-3-(3)---------2---|
||o---0---------------0---------|---0---------------0-----------|
||--5---5-(5)-4-5-(5)---5-(5)-2-|-4---4-(4)-2-4-(4)---4-(4)-2---|
||------------------------------|-------------------------------|
||o-0------0-------0-------0----|-2------2-------2-------2------|
||------------------------------|-------------------------------|
    Q      Q       Q       Q      Q      Q       Q       Q


                                1.
  E S S +S  E S +S  E S +E  E   E S S +S  E S +S  E S +S  S S S
|-3-3-------2-0-(0)---------2-|-3-3-------2-0-(0)---------0-2-3--||
|---0---------------0---------|---0---------------0-------------o||
|-4---4-(4)-2-0-(0)---0-(0)-2-|-4---4-(4)-2-0-(0)---0-(0)--------||
|-----------------------------|----------------------------------||
|-----------------------------|---------------------------------o||
|-0------0-------0-------0----|-0------0-------0-------0---------||
  Q      Q       Q       Q      Q      Q       Q       Q


   2.
   E S S +S  E S +S  E S +E  E
|--3-3-------2-0-(0)---------2--|
|----0---------------0----------|
|--4---4-(4)-2-0-(0)---0-(0)-2--|
|-------------------------------|
|-------------------------------|
|--0------0-------0-------0-----|
   Q      Q       Q       Q


  E S S +S  E S +S  E S +E  E
|-3-3-------2-0-(0)---------3-|
|---0---------------0---------|
|-4---4-(4)-2-0-(0)---0-(0)-4-|
|-----------------------------|
|-----------------------------|
|-0------0-------0-------0----|
  Q      Q       Q       Q


  H.=H
  E  E   E   E   E   E   E    E    T T T T T T +S   Q.
|-0-<7>---------------------<12>-|-0----------------0-----|
|-------<7>----------------------|---3--------------3-----|
|-0------------------------------|-----0------------0-----|
|-----------<5>------------------|-------4----------4-----|
|---------------<5>-<7>----------|---------2--------2-----|
|-0---------------------<7>------|-----------0-(0)-(0)----|
  W


Duration Legend
---------------
W - whole; H - half; Q - quarter; E - 8th; S - 16th; T - 32nd; X - 64th; a - acciaccatura
+ - note tied to previous; . - note dotted; .. - note double dotted
Uncapitalized letters represent notes that are staccato (1/2 duration)
Irregular groupings are notated above the duration line
Duration letters will always appear directly above the note/fret number it represents the
duration for.  Duration letters with no fret number below them represent rests.  Multi-
bar rests are notated in the form Wxn, where n is the number of bars to rest for.  Low
melody durations appear below the staff

Tablature Legend
----------------
 h   - hammer-on
 p   - pull-off
 b   - bend
 pb  - pre-bend
 r   - bend release (if no number after the r, then release immediately)
 /\  - slide into or out of (from/to "nowhere")
 s   - legato slide
 S   - shift slide
  - natural harmonic
[n]  - artificial harmonic
n(n) - tapped harmonic
 ~   - vibrato
 tr  - trill
 T   - tap
 TP  - trem. picking
 PM  - palm muting
\n/  - tremolo bar dip; n = amount to dip
 \n  - tremolo bar down
 n/  - tremolo bar up
/n\  - tremolo bar inverted dip
 =   - hold bend; also acts as connecting device for hammers/pulls
 <>  - volume swell (louder/softer)
 x   - on rhythm slash represents muted slash
 o   - on rhythm slash represents single note slash

Misc Legend
-----------
 |  - bar
||  - double bar
||o - repeat start
o|| - repeat end
*|  - double bar (ending)
 :  - bar (freetime)
 $  - Segno
 &  - Coda
Tempo markers -  = BPM(8/16=s8/s16), where s8 = swing 8ths, s16 = swing 16ths


***************************************************************************************
* Generated using Power Tab Editor by Brad Larsen - http://powertab.guitarnetwork.org *
***************************************************************************************
Suggest correction
Give kudos to tab author, rate the tab!
1 2 3 4 5
comments
print report bad tab
guest
You may want to rate the tab now too:
select rating
Wanna post a correction for this tab? Suggest correction