Oops, an error
Loading. Please wait.

Fragile Chords

version 5
version 5

Whole song

Interactive

Video

121 views 21 this week
1 commentread comment
1 2 3 4 5
2 more votes to show rating
add to favorites
launch autoscroll
font size
0
reset
transpose
0
reset
simplify chords
display chords
guitar tuner
Autoscroll
slow
fast
+/-
esc
set tempo
stop
Help us to improve Ultimate-Guitar.com Take our survey!
×
Author
Difficulty
Capo
maguri [tm] 27,124
intermediate
2nd fret
About this tab version
Complete chords with intro and outro / tab for main pattern / suggestions for playable voicings of special chords. Was this info helpful? Yes No
---------------------------------------------------------------------------
          Fragile – Sting
---------------------------------------------------------------------------
Tabbed by: maguri
Tuning: Standard

Sting
Fragile (1988)
(Sting)

From: "... Nothing like the Sun"

---------------------------------------------------------------------------

capo: 2nd fret
play: Dm
key: Em

---------------------------------------------------------------------------


  Dm              Gm7              A7+5  A7sus4 A7  Dsus2    Dm
  1 + 2 + 3 + 4 +  1 + 2 + 3 + 4 +  1 + 2 + 3 + 4 +  1 + 2 + 3 + 4 +  
e|5----------5----|1----0-----1----|1----0----------|0-------1-------|
B|6----8-6---6----|3------3---3----|2----2--3---2---|3----3--3-------|
G|7----9-7--------|3------3--------|0----0--0---0---|2----2--2-------|
D|0-------0-------|----------------|3-------2---2---|0-------0-------|
A|----------------|----------------|0-------0---0---|----------------|
E|----------------|3-------3-------|----------------|----------------|

  Dm              Gm7              A7+5  A7sus4 A7  Dsus2    Dm
  1 + 2 + 3 + 4 +  1 + 2 + 3 + 4 +  1 + 2 + 3 + 4 +  1 + 2 + 3 + 4 +  
e|5----------5----|1----0-----1----|1----0----------|0----1----------|
B|6----8-6---6----|3------3---3----|2----2--3---2---|3----3--3-------|
G|7----9-7--------|3------3--------|0----0--0---0---|2----2--2-------|
D|0-------0-------|----------------|3-------2---2---|0-------0-------|
A|----------------|----------------|0-------0---0---|----------------|
E|----------------|3-------3-------|----------------|----------------|


---------------------------------------------------------------------------

CHORDS

       E-A-D-G-B-e
Dsus4  x-x-0-2-3-3
G/D    x-x-0-0-0-3
Am/D   x-x-0-2-1-0
G5/D   x-x-0-0-3-3

Gm7    3-x-0-3-3-1
A7+5   x-0-3-0-2-1  = A7aug
A7sus4 x-0-2-0-4-0
A7     x-0-2-0-2-0

D5     x-x-0-2-3-x

---------------------------------------------------------------------------

[Intro 1] (freely)
| Dsus4 | G/D | Am/D | G5/D |

[Intro 2]
| Dm | Gm7 | A7+5   A7sus4 A7 | Dsus2 Dm | 
| Dm7 | Gm7 | A7+5   A7sus4 A7 | Dsus2 Dm | 


[Verse]
              Dm7                  Gm7
If blood will flow, when flesh and steel are one
A7+5          A7sus4 A7     Dsus2   Dm
Drying in the colour of the evening sun
           Dm7                Gm7
Tomorrow's rain will wash the stains away
    A7+5             A7sus4     A7     Dsus2   Dm
But something in our minds will always stay


[Verse]
   Dm7                              Gm7
Perhaps this final act was meant to clinch a lifetime's argument
     A7+5               A7sus4 A7        Dsus2        Dm
That nothing comes from vio -  lence and nothing ever could
    Dm7                             Gm7
For all those born beneath an angry star
     A7+5          A7sus4  A7 Dsus2   Dm
Lest we forget how fragile we are


[Chorus]
Bb6           A7+5 
On and on the rain will fall
     Dm
Like tears from a star
     Dm
Like tears from a star
Bb6           A7+5 
On and on the rain will say
    Dm
How fragile we are
    Dm
How fragile we are


[Solo]
| Dm7 | Gm7 | A7+5   A7sus4 A7 | Dsus2 Dm | 
| Dm7 | Gm7 | A7+5   A7sus4 A7 | Dsus2 Dm | 

| Dm7 | Gm7 | A7+5   A7sus4 A7 | Dsus2 Dm | 
| Dm7 | Gm7 | A7+5   A7sus4 A7 | Dsus2 Dm | 


[Chorus]
Bb6           A7+5 
On and on the rain will fall
     Dm
Like tears from a star
     Dm
Like tears from a star
Bb6           A7+5 
On and on the rain will say
    Dm
How fragile we are
    Dm
How fragile we are

    Dm
How fragile we are
    Dm
How fragile we are


[Coda]
| Dsus4 | G/D | Am/D | G5/D |
| Am/D | G5/D | D5
Suggest correction
Give kudos to tab author, rate the tab!
1 2 3 4 5
comments
print report bad tab
1 comment total.
0 reply
Mats Fagergren 1,681 Nov 12, 2016 07:42 PM

Nice work here

guest
You may want to rate the tab now too:
select rating
Wanna post a correction for this tab? Suggest correction