Oops, an error
Loading. Please wait.

Fragilidad Tab

by Sting
231 views 3 this week
no commentswrite comment
1 2 3 4 5
3 more votes to show rating
add to favorites
launch autoscroll
font size
0
reset
how to read this tab
guitar tuner
Autoscroll
slow
fast
+/-
esc
set tempo
stop
INTRO:


E:-------------------------------------------------------
B:---12-10-12----12-10-12--12-10-12---12-10-12--12-10-12-
G:-9-----------9---------------------9-------------------
D:-------------------------------------------------------
A:-------------------------------------------------------
E:-------------------------------------------------------


E:------------------------------------------------
B:-12-10--------12-12-----------------------------
G:-------12-12--------12-11-9-9--12-12--12-11-9-9-
D:------------------------------------------------
A:------------------------------------------------
E:------------------------------------------------


E:---------------------------------------------
B:----------8----------------------------------
G:-8-8-11-9------------------------------------
D:---------------------------------------------
A:---------------------------------------------
E:---------------------------------------------
Suggest correction
Give kudos to tab author, rate the tab!
1 2 3 4 5
comments
print report bad tab
guest
You may want to rate the tab now too:
select rating
Wanna post a correction for this tab? Suggest correction