Oops, an error
Loading. Please wait.

Heavy Cloud No Rain Bass Tab

version 2
version 2

Whole song

Interactive

1,341 views 1 this week
no commentswrite comment
1 2 3 4 5
3 more votes to show rating
add to favorites
launch autoscroll
font size
0
reset
guitar tuner
Autoscroll
slow
fast
+/-
esc
set tempo
stop
Help us to improve Ultimate-Guitar.com Take our survey!
×
Author
Difficulty
intermediate
Artist: Sting
Song:   Heavy Cloud, No Rain
Album:  Ten Summoner's Tales

(Tabbed by Oli - oli@elepost.de)


This tablature is a helping sketch. It doesn’t contain the correct 
sort of bars and notes. Nevertheless, I'm sure you'll be able to 
figure out and I hope it will help you!


  MAIN RIFF:
G|------------------------------------------------------------------------|
D|-------5---77----5-7----------------------------------------------------|
A|-----7---7-----7----(5)-------------------------------------------------|
E|--5----------------8---5------------------------------------------------|

  BRIDGE WITHIN THE MAIN RIFF:
G|------------------------------------------------------------------------|
D|----5-7-----------------------------------------------------------------|
A|--7---------------------------------------------------------------------|
E|--------5---------------------------------------------------------------|
  Heavy cloud, but no rain...


  MAIN RIFF - UPPER PART:
G|------------------------------------------------------------------------|
D|-10---8---8-8----8-9-10-------------------------------------------------|
A|----10-10------10--------7---5-6-7----7-7-------------------------------|
E|---------------------------7--------0-----6-5---------------------------|


  INTERLUDE:
G|------------------------------------------5-----3-4-5-5--------5-5------|
D|----------------------------------------------5----------5-7-5----------|
A|--3-3-5-55-----55555-----2--22-33355555---------------------------------|
E|------------555------5-5--------------------------------------------0---|
  The sun won't shine...

G|------------------------------------------------------------------------|
D|------------------------------------------------------------------------|
A|----5-6-7------7-7------------------------------------------------------|
E|--7-------0--------6-5--------------------------------------------------|


Suggest correction
Give kudos to tab author, rate the tab!
1 2 3 4 5
comments
print report bad tab
guest
You may want to rate the tab now too:
select rating
Wanna post a correction for this tab? Suggest correction