Oops, an error
Loading. Please wait.

I Was Brought To My Senses Bass Tab

1,906 views 1 this week
no commentswrite comment
1 2 3 4 5
please rate
add to favorites
launch autoscroll
font size
0
reset
guitar tuner
Tab Pro tools
  • play this tab
  • loop segment
  • change instrument
  • show fretboard
  • metronome
Autoscroll
slow
fast
+/-
esc
set tempo
stop
Contributor
Difficulty
intermediate
Artist: Sting
Song:   I Was Brought To My Senses
Album:  Mercury Falling

(Tabbed by Oli (Fiorello) - oli@elepost.de)

Buon giorno a tutti!

This tablature is a helping sketch. It doesn’t contain the correct 
sort of bars and notes. Nevertheless, I'm sure you'll be able to 
figure out and I hope it will help you!



  {VERSE 1 WITHOUT BASS}


  BRIDGE (AT 1:37):
G|------------------------------------------9----------------------|
D|---------------9-----9---------9--10--12-----9--10--12-----------|
A|-----9--10--12----9-----12--10-----------------------------------|
E|-10--------------------------------------------------------------|



  VERSE 2:                                                     [2x]
G|-----------------------------------------------------------------|
D|*-------------2----------------------------2--------------------*|
A|*----2--3--5-----2--3--5-------2--3--5--6-----3-—5--------------*|
E|--3-------------------------3------------------------------------|
  I walked out this morning...



  REFRAIN:                                                     [2x]
G|--------2--4-------2-2-------------------------------------------|
D|*-2~--2-----2-0---0------------4-5------------1-2~--------------*|
A|*-----------------------3~--3-----3-2~--2-2---------------------*|
E|-----------------------------------------------------------------|

  CONTINUING REFRAIN:
G|-------2--4-------2-2-----------2-3-4--4--------------5-43--2*---|
D|-2~--2-----2-0--0------4~---4-2----------------------------------|
A|-----------------------------------------2-2---3~---3------------|
E|-----------------------------------------------------------------|


{VERSE 3}


  REFRAIN:                                                     [2x]
G|--------2--4-------2-2-------------------------------------------|
D|*-2~--2-----2-0---0------------4-5------------1-2~--------------*|
A|*-----------------------3~--3-----3-2~--2-2---------------------*|
E|-----------------------------------------------------------------|

  CONTINUING REFRAIN:
G|-------2--4-------2-2-----------2-3-4--4--------------5-43--2*---|
D|-2~--2-----2-0--0------4~---4-2----------------------------------|
A|-----------------------------------------2-2---3~---3------------|
E|-----------------------------------------------------------------|

  BRIDGE:
G|--------------|
D|-4~---4-3~--3-|
A|--------------|
E|--------------|


REFRAIN UNTIL FADE OUT...

comments
We did not receive enough feedback on this tab! Please rate:
print report bad tab
1 2 3 4 5
I want to post or [tab]
guest
You may want to rate the tab now too:
select rating
Please do not post tabs as comments. Select "correction" instead!