Oops, an error
Loading. Please wait.

Shape Of My Heart Tab

version 1
300,411 views 327 this week
1 commentread comment
1 2 3 4 5
accurate
x 49
add to favorites
launch autoscroll
font size
0
reset
how to read this tab
guitar tuner
Autoscroll
slow
fast
+/-
esc
set tempo
stop
Help us to improve Ultimate-Guitar.com Take our survey!
×
This is my first tab, so it might sound a litle funny. I'v based it on a vid on youtube.

I sugeste that you listen to the song to finde out how many times each of the verses go
the bridge, because I'm to lacy to do so
-.-

Standard tuning, Accustic guitar.


e|------------|----------|-------------|-------------|
B|--10----10--|--9-----9-|---7------7--|---7----6----|
G|-----6------|-----6----|------4------|-------------|
D|------------|----------|-------------|-------------|
A|--9---------|--7-------|---5---------|---5----4----|
E|------------|----------|-------------|-------------|

e|------------|----------|-------------|-------------|
B|--10----10--|--9-----9-|---7------7--|---7----6----|
G|-----7------|-----6----|------4------|-------------|
D|------------|----------|-------------|-------------|
A|--9---------|--7-------|---5---------|---5----4----|
E|------------|----------|-------------|-------------|

e|-----------5-------|---------0-----|---------------|----------------|
B|------7-------7----|---------------|----------6----|-7----5---------|
G|----6--6--------6--|-2h4p2---------|---------------|-7---------7----|
D|-------------------|---------------|------6--------|----------------|
A|--5----------------|-4-------------|--4------------|-5--------------|
E|-------------------|---------------|---------------|----------------|

e|------------|---2-------|
B|--2---------|---2-------|
G|-----4--2---|---2-------|
D|------------|---4-------|
A|--4---------|---4-------|
E|------------|---2-------|


This is repeated through out most of the song, except a variation of the three last bars.

e|------------|----------|--2----------|
B|--7---7-----|--7-------|--2----------|
G|--7------7--|--4-------|--2----------|
D|------------|----------|--4----------|
A|--5---------|--4-------|--4----------|
E|------------|----------|--2----------|


I prefere playing this version, but there are other ones.


[Bridge]

Before going to the bridge you play:

e|------------|----------|--2---2---2--|--2---2---2--|------------|
B|--7---7-----|--7-------|--2---2---2--|--2---2---2--|--7---7-----|
G|--7------7--|--4-------|--2---2---2--|--2---2---2--|--7------7--|
D|------------|----------|--4---4---4--|--2---2---2--|------------|
A|--5---------|--4-------|--4---4---4--|--4---4---4--|--5---------|
E|------------|----------|--2---2---2--|--2---2---2--|------------|


e|------------|-------------|
B|---7--------|---2---0-----|
G|---4--------|----------1--|
D|------------|-------------|
A|---4--------|---4~~~~~~~~~|
E|------------|-------------|

"Main" bridge:
e|------------|------------|-------------|--------------|
B|--5-------5-|--4------4--|-------------|--------------|
G|--1---1-----|--1---1-----|---6-----6---|---6-----5----|
D|------------|------------|------4------|--------------|
A|--4---------|--2---------|-------------|--------------|
E|------------|------------|---5---------|---5------4---|


e|------------|------------|-------------|--------------|
B|--5-------5-|--4------4--|-------------|--------------|
G|--2---2-----|--1---1-----|---6-----6---|---6-----5----|
D|------------|------------|------4------|--------------|
A|--4---------|--2---------|-------------|--------------|
E|------------|------------|---5---------|---5------4---|


e|-----------0-----------|------------|---------------|--------------|
B|-----------------------|------------|---------------|--------------|
G|-------6--------6------|--------1---|----------2----|---6--6-------|
D|-----4---4----------4--|--------2---|---------------|-----------7--|
A|-----------------------|-----2------|-------6-------|--------------|
E|--5--------------------|--0---------|---4-----------|---5----------|


e|--4---4---4---4--|--4---4---4---4--|---4---4---4---4|---5---5---5---5----|
B|--4---4---4---4--|--5---5---5---5--|---5---5---5---5|---5---5---5---5----|
G|--5---5---5---5--|--6---6---6---6--|---4---4---4---4|---6---6---6---6----|
D|--6---6---6---6--|--6---6---6---6--|---6---6---6---6|---7---7---7---7----|
A|--6---6---6---6--|--4---4---4---4--|---4---4---4---4|---7---7---7---7----|
E|--4---4---4---4--|--4---4---4---4--|---4---4---4---4|---5---5---5---5----|

            *
e|--4------|------------|
B|--4------|---5--------|
G|--5------|---6--------|
D|--6------|---7--------|
A|--6------|---7--------|
E|--4------|---5--------|

* = I'm not 100% sure if the last chord is right. It might have a 9'er or somthing, but 
A sounds OK.


After Bridge you go back to the main vers agian:


e|------------|----------|-------------|-------------|
B|--10----10--|--9-----9-|---7------7--|---7----6----|
G|-----6------|-----6----|------4------|-------------|
D|------------|----------|-------------|-------------|
A|--9---------|--7-------|---5---------|---5----4----|
E|------------|----------|-------------|-------------|

e|------------|----------|-------------|-------------|
B|--10----10--|--9-----9-|---7------7--|---7----6----|
G|-----7------|-----6----|------4------|-------------|
D|------------|----------|-------------|-------------|
A|--9---------|--7-------|---5---------|---5----4----|
E|------------|----------|-------------|-------------|

e|-----------5-------|---------0-----|---------------|----------------|
B|------7-------7----|---------------|----------6----|-7----7---------|
G|----6--6--------6--|-2h4p2---------|---------------|-7---------7----|
D|-------------------|---------------|------6--------|----------------|
A|--5----------------|-4-------------|--4------------|-5--------------|
E|-------------------|---------------|---------------|----------------|

e|------------|---2-------|
B|--7---------|---2-------|
G|--4---------|---2-------|
D|------------|---4-------|
A|--4---------|---4-------|
E|------------|---2-------|


[Outro]

Outro is pretty much the same, but i like to play a D7, instead of the normal D to make
litle variation.

e|-------------|------------|---2--2--2--2--|---2--2--2--2--|
B|-7---7-------|--7---------|---2--2--2--2--|---2--2--2--2--|
G|-7-------7---|--4---------|---2--2--2--2--|---2--2--2--2--|
D|-------------|------------|---4--4--4--4--|---2--2--2--2--|
A|-5-----------|--4---------|---4--4--4--4--|---4--4--4--4--|
E|-------------|------------|---2--2--2--2--|---2--2--2--2--|

e|-------------|------------|------------------2--|
B|-7---7-------|--7---------|---------------2-----|
G|-7-------6---|--4---------|------------2--------|
D|-------------|------------|---------4-----------|
A|-5-----------|--4---------|------4--------------|
E|-------------|------------|---2-----------------|


That is the main structure of the song, but you are able to play with the rythme or such.



************************************

| h  Hammer-on
| p  Pull-off
| ~  Vibrato

************************************
Suggest correction
What's this?
You can suggest a correction to this tab. Community and Mods will review your correction and vote to approve or reject it.
comments
print report bad tab
1 comment total.
0 reply
nort721 12 wrote on January 24 2015, 11:55 am

Thank you so much!
what key is it in?

guest
You may want to rate the tab now too:
select rating
Please do not post tabs as comments. Select "correction" instead!