Oops, an error
Loading. Please wait.

Shape Of My Heart Tab

version 4
version 4
by Sting
16,837 views 204 this week
no commentswrite comment
1 2 3 4 5
2 more votes to show rating
add to favorites
launch autoscroll
font size
0
reset
how to read this tab
guitar tuner
backing track
0:00
0:00
×
Best way to learn
"Shape Of My Heart"
Autoscroll
slow
fast
+/-
esc
set tempo
stop
Author
Sting-"Shape of My Heart"

e-5---5----4-----4------2----2-----2-1-|-5----5----4---4----2---2----2-1-|
b---2---2-----2-----2------0---0-------|----3---3----2---2----0---0------|
g--------------------------------------|---------------------------------|
d-4--------2------------0----------4-4-|-4---------2--------0--------4-4-|
a--------------------------------------|---------------------------------|
e--------------------------------------|---------------------------------|

e--2-----2-4-2------------------------------2--2|
b------2------2------6------6---7--7-----7--3--2|
g-------------------------------------------4--2|
d--0------------2-0--6----6---6-7----7---7--4--4|
a--------------------4--4-------5------5-5--2--4|
e----------------------------------------------3|

2 time("but that's not the shape, the shape of my heart")

|--0---0------------------------------|
|-----------4----4-----2----2----2-1--|
|----1---1-----1---1------------------|
|-------------------------4---4-------|
|--4--------2----------0--------------|
|--------------------------------4-4--|

e--0----0---------------------------|--------0-----------------------------|
b------------4---4----2---2---2-1---|-----2---2--------2--------4----4-----|
g-----2---2----1---1----------------|------------------0-------------------|
d-----------------------4---4-------|---4--4----4---------4-2-0-4--4---4---|
a--4---------2--------0-------------|--0------------0-----------2----------|
e-----------------------------4-4---|--------------------------------------|

e-----2--4-------------2--4--|
b--6--2--5-----5----6--2--5--|
g--7--2--6----------7--2--6--|
d--5--4--6---6---6--5--4--6--|
a-----4--4-------------4--4--|
e-----2----------------2-----|

Tab:Faby breton
Any suggestion...
e-mail:fabi_breton@hotmail.com
Suggest correction
Give kudos to tab author, rate the tab!
1 2 3 4 5
comments
print report bad tab
guest
You may want to rate the tab now too:
select rating
Wanna post a correction for this tab? Suggest correction