Oops, an error
Loading. Please wait.

Until Tab

version 1
version 1

Whole song

Interactive

5,925 views 18 this week
no commentswrite comment
1 2 3 4 5
2 more votes to show rating
add to favorites
launch autoscroll
font size
0
reset
how to read this tab
guitar tuner
Autoscroll
slow
fast
+/-
esc
set tempo
stop
Help us to improve Ultimate-Guitar.com Take our survey!
×
Author
Until -- Sting
Album: "Kate & Leopold" Soundtrack
___________________________
 
Timing - 3/4 (waltz)
t stands for 2 tied triplet 8th notes
r stands for rest beat

Tab first. Lyrics follow.
 
INTRO

E-------------------------|------------------------|
B---0-0---0-0---0-0---0-0-|--0-0---0-0---0-0-------|
G---0-0---0-0---0-0---0-0-|--0-0---0-0---0-0---3---|
D---2-2---2-2---2-2---2-2-|--2-2---2-2---2-2---2---|
A-------------------------|--------------------4-4-|
E-0-----0-----0-----0-----|0-----0-----0-----2-----|
  ^     ^     ^      ^     ^     ^     ^     ^
                                               If
 

VERSE 1
 
E-------------------------|------------------------|------------------------|
B---3-3---3-3-------------|--5-5---------3-3---3-3-|--------------5-5---5-5-|
G---4-4---2-2---4-4---4-4-|--4-4---3-3---4-4---4-4-|--4-4---4-4---4-4---4-4-|
D---4-4---4-4---5-5---5-5-|--5-5---4-4---4-4---4-4-|--5-5---5-5---5-5---5-5-|
A-2-------------5-5---5-5-|4-------4-4-2-----------|--5-5---5-5-4-----4-----|
E-------5-----3-----3-----|------2-----------5-----|3-----3-----------------|
  ^     ^     ^     ^      ^     ^     ^     ^     |^     ^     ^     ^  
 
  I     caught the  world in a bottle....



E-------------------------|
B---------5-5-------------|
G---3-3---4-4---3-3---3-3-|
D---4-4---5-5---4-4---2-2-|
A---4-4-4-------4-4---4-4-|
E-2-----------2-----2-----|
  ^     ^     ^     ^     
 
(repeat verse 1)
 
BRIDGE 1
 
E--------------------------|------------------------|------------------------|
B---8-8----8-8---8-8-------|--7-7---5-5---------7-7-|--3-3---3-3-------------|
G---9-9----7-7---9-9---6-6-|--6-6---6-6---7-7---7-7-|--4-4---4-4---4-4---4-4-|
D---9-9----9-9---7-7---7-7-|--7-7---7-7---9-9---7-7-|--4-4---4-4---3-3---3-3-|
A-7--------------------7-7-|5-------------9-9-------|--------------5-5---5-5-|
E-------10-----9-----5-----|------9-----7-----5-----|4-----4-----3-----3-----|
  ^     ^      ^     ^      ^     ^     ^     ^     |^     ^     ^     ^
... arms where the world is ...
 
E-------------------------|
B---------5-5-------------|
G---3-3---4-4---3-3---3-3-|
D---4-4---5-5---4-4---2-2-|
A---4-4-4-------4-4---4-4-|
E-2-----------2-----2-----|
  ^     ^      ^     ^    
(repeat bridge 1)

E-------------------------|------------------------|------------------------|
B---3-3---3-3-------------|--5-5---------3-3---3-3-|--------------5-5---5-5-|
G---4-4---2-2---4-4---4-4-|--4-4---3-3---4-4---4-4-|--4-4---4-4---4-4---4-4-|
D---4-4---4-4---5-5---5-5-|--5-5---4-4---4-4---4-4-|--5-5---5-5---5-5---5-5-|
A-2-------------5-5---5-5-|4-------4-4-2-----------|--5-5---5-5-4-----4-----|
E-------5-----3-----3-----|------2-----------5-----|3-----3-----------------|
  ^     ^     ^     ^      ^     ^     ^     ^     |^     ^     ^     ^  
 
... I caught the world in an...
 
E-------------------------|------------------------|
B---3-3---3-3-------------|------------------------|
G---4-4---4-4---4-4---4-4-|--4-4---4-4---4-4---4-4-|
D---4-4---4-4---4-4---4-4-|--5-5---5-5---5-5---3-3-|
A-2-----2-------5-5---5-5-|--5-5---5-5---5-5---5-5-|
E-------------4-----4-----|3-----3-----3-----3-----|
  ^     ^     ^     ^      ^     ^     ^     ^   
 

VERSE 2
 
E-------------------------|------------------------|------------------------|
B---4-4---4-4-------------|--6-6---------4-4---4-4-|--------------6-6---6-6-|
G---5-5---3-3---5-5---5-5-|--5-5---4-4---5-5---5-5-|--5-5---5-5---5-5---5-5-|
D---5-5---5-5---6-6---6-6-|--6-6---5-5---5-5---5-5-|--6-6---6-6---6-6---6-6-|
A-3-------------6-6---6-6-|5-------5-5-3-----------|--6-6---6-6-5-----5-----|
E-------6-----4-----4-----|------3-----------6-----|4-----4-----------------|
  ^     ^     ^     ^      ^     ^     ^     ^     |^     ^     ^     ^  
 
 One day you’ll meet a stranger...
 
E-------------------------|
B---------6-6-------------|
G---4-4---5-5---4-4---4-4-|
D---5-5---6-6---5-5---3-3-|
A---5-5-5-------5-5---5-5-|
E-3-----------3-----3-----|
  ^     ^     ^     ^     
 
(repeat verse 2)
 

BRIDGE 2
 
E---------------------------------|---------------------------|
B---9--9-----9--9-----9--9--------|--8-8----6-6-----------8-8-|
G---10-10----8--8-----10-10---7-7-|--7-7----7-7---8--8----8-8-|
D---10-10----10-10----8--8----8-8-|--8-8----8-8---10-10---8-8-|
A-8---------------------------8-8-|6--------------10-10-------|
E---------11-------10-------6-----|------10-----8-------6-----|
  ^       ^        ^        ^      ^     ^      ^       ^   
... arms where the world...
 
E-------------------------|------------------------|
B---4-4---4-4-------------|--------6-6-------------|
G---5-5---5-5---5-5---5-5-|--4-4---5-5---4-4---4-4-|
D---5-5---5-5---4-4---4-4-|--5-5---6-6---5-5---3-3-|
A---------------6-6---6-6-|--5-5-5-------5-5---5-5-|
E-5-----5-----4-----4-----|3-----------3-----3-----|
  ^     ^     ^     ^      ^     ^     ^     ^          
(repeat bridge 2)        
 
         |------------------------|------------------------|
         |------6-t-6-------6-t-6-|------6-t-6-t-6-t-6-t---|
 second  |--4-4-5-t-5---4-4-5-t-5-|--4-4-5-t-5-t-5-t-5-t-4-|
 ending  |--5-5-6-t-6---5-5-6-t-6-|--5-5-6-t-6-t-6-t-6-t-3-|
         |--5-5---------5-5-------|--5-5-----------------5-|
         |3-----------r-----------|r-----------------------|
          ^     ^     ^     ^      ^     ^     ^     ^         
            ... dancing’s end...
 
 
E-------------------------|------------------------|------------------------|
B---4-4---4-4-------------|--6-6---------4-4---4-4-|--------------6-6---6-6-|
G---5-5---3-3---5-5---5-5-|--5-5---4-4---5-5---5-5-|--5-5---5-5---5-5---5-5-|
D---5-5---5-5---6-6---6-6-|--6-6---5-5---5-5---5-5-|--6-6---6-6---6-6---6-6-|
A-3-------------6-6---6-6-|5-------5-5-3-----------|--6-6---6-6-5-----5-----|
E-------6-----4-----4-----|------3-----------6-----|4-----4-----------------|
  ^     ^     ^     ^      ^     ^     ^     ^     |^     ^     ^     ^  
..I caught the world in an hourglass...
 
E-------------------------|------------------------|------------------------|
B---4-4---4-4-------------|--------------6-6---6-6-|--4-4---4-4-------------|
G---5-5---5-5---5-5---5-5-|--5-5---5-5---5-5---5-5-|--5-5---5-5---5-5---5-5-|
D---5-5---5-5---5-5---5-5-|--6-6---6-6---6-6---6-6-|--5-5---5-5---5-5---5-5-|
A-3-----3-------6-6---6-6-|--6-6---6-6-5-----5-----|3-----3-------6-6---6-6-|
E-------------5-----5-----|4-----4-----------------|------------5-----5-----|
  ^     ^     ^     ^      ^     ^     ^     ^      ^     ^     ^     ^  
 
E-------------------------|------------------------|------------------------|
B---------------6-6-------|--4-4---4-4-------------|--------------6-6---6-6-|
G---5-5---5-5---5-5---4-4-|--5-5---5-5---5-5---5-5-|--5-5---5-5---5-5---4-4-|
D---6-6---6-6---6-6---5-5-|--5-5---5-5---5-5---5-5-|--4-4---4-4---6-6---5-5-|
A---6-6---6-6-5-------5-5-|3-----3-------6-6---6-6-|--6-6---6-6-5-------5-5-|
E-4-----4-----------3-----|------------5-----5-----|4-----4-----------3-----|
  ^     ^     ^     ^      ^     ^     ^     ^      ^     ^     ^     ^  
 
E-------------3-8-----------|
B-----4-343-----8-----------|
G-----------5---8-----------|
D---5-----------10----------|
A-3-------------10----------|
E---------------8-----------|
  ^     ^       ^     ^     



 
Until - lyrics

If I caught the world in a bottle
And everything was still beneath the moon
Without your love would it shine for me?
If I was smart as Aristotle
And understood the rings around the moon
What would it all matter if you loved me?

Here in your arms where the world is impossibly still
With a million dreams to fulfil
And a matter of moments until the dancing ends
Here in your arms when everything seems to be clear
Not a solitary thing would I fear
Except when this moment comes near the dancing's end

If I caught the world in an hourglass
Saddled up the moon so we could ride
Until the stars grew dim, Until...

One day you’ll meet a stranger 
And all the noise is silenced in the room
You’ll feel that you're close to some mystery
In the moonlight and everything shatters
You feel as if you’ve known her all your life
The world’s oldest lesson in history

Here in your arms where the world is impossibly still
With a million dreams to fulfil
And a matter of moments until the dancing ends
Here in your arms when everything seems to be clear
Not a solitary thing do I fear
Except when this moment comes near the dancing’s end

Oh, if I caught the world in an hourglass
Saddled up the moon and we would ride
Until the stars grew dim 
Until the time that time stands still, Until...
Suggest correction
Give kudos to tab author, rate the tab!
1 2 3 4 5
comments
print report bad tab
guest
You may want to rate the tab now too:
select rating
Wanna post a correction for this tab? Suggest correction