Oops, an error
Loading. Please wait.

New Beginning Bass Tab

by Stir
289 views 1 this week
no commentswrite comment
1 2 3 4 5
please rate
add to favorites
launch autoscroll
font size
0
reset
guitar tuner
Autoscroll
slow
fast
+/-
esc
set tempo
stop
Help us to improve Ultimate-Guitar.com Take our survey!
×
Stir
New Beginning

tabbed by:  Booga1(Member of the Bass Tab Archive Tabbing Army)


This one is pretty straight forward... nothing out of the ordinary in this song...

Enjoy!



   H. Q   H. S E.  H. Q   H. Q   H. Q   H. S E.  H. Q   H. Q   H. Q   H. S E.
G|------|--------|------|------|------|--------|------|------|------|--------|
D|------|--------|------|------|------|--------|------|------|------|--------|
A|----4-|-2--2-4-|----4-|-2--0-|----4-|-2--2-4-|----4-|-2--0-|----4-|-2--2-4-|
D|-4----|--------|-4----|------|-4----|--------|-4----|------|-4----|--------|



   H. Q   H. Q   E E E E E Q  E   E E E E E Q  E   E Q  E E E E E   E E E E E E E E
G|------|------|----------------|----------------|----------------|-----------------|
D|------|------|----------------|----------------|----------------|-----------------|
A|----4-|-2--0-|----------------|-1-1-1-1-1-1--1-|-3-3--3-3-3-1-3-|---------4-4-4---|
D|-4----|------|-4-4-4-4-4-4--4-|----------------|----------------|-4-4-4-4-------1-|



   E E E E E E E E   E E E E E E E E   E E E E E E E E   E E E E E E E E
G|-----------------|-----------------|-----------------|-----------------|
D|-----------------|---------4-4-4-4-|-----------------|-----------------|
A|-----------------|-2-2-2-2---------|---------4-4-4-4-|-----------2-2-2-|
D|-1-1-1-1-1-1-1-1-|-----------------|-4-4-4-4---------|-2-2-2-2-2-------|



   E E E E E E E E   E E E E E E E E   E E E E E E E E   E E E E E E E E
G|-----------------|-----------------|-----------------|-----------------|
D|-----------------|-----------------|-4-4-4-4-3-3-3-3-|-2-2-2-2-2-------|
A|---------4-4-4-4-|-----------2-2-2-|-----------------|-----------2-2-2-|
D|-4-4-4-4---------|-2-2-2-2-2-------|-----------------|-----------------|



   E E E E E E E E   E E E E E E E S S   H. Q   H. S E.  H. Q   H. Q  
G|-----------------|-------------------|------|--------|------|------|
D|-4-4-4-4-3-3-3-3-|-------------------|------|--------|------|------|
A|-----------------|-----------2-2-2-4-|----4-|-2--2-4-|----4-|-2--0-|
D|-----------------|-2-2-2-2-2---------|-4----|--------|-4----|------|



   H. Q   H. S E.  H. Q   H. Q   E Q  E E Q  E   E Q  E E Q  E   E Q  E E Q  E
G|------|--------|------|------|---------------|---------------|---------------|
D|------|--------|------|------|---------------|---------------|---------------|
A|----4-|-2--2-4-|----4-|-2--0-|---------------|-1-1--1-1-1--1-|-3-3--3-3-3--3-|
D|-4----|--------|-4----|------|-4-4--4-4-4--4-|---------------|---------------|



   E E E E E E E E   E E E E E E E E   E E E E E E E E   E E E E E E E E
G|-----------------|-----------------|-----------------|-----------------|
D|-----------------|-1-1-1-1-1-1-3-4-|-0-0-0-0-0-0-0-0-|-----------------|
A|---------4-4-4---|-----------------|-----------------|---------4-4-4-4-|
D|-4-4-4-4-------1-|-----------------|-----------------|-1-1-1-1---------|



   E E E E E E E E   E E E E E E E E   E E E E E E E E   E E E E E E E E
G|-----------------|-----------------|-----------------|-----------------|
D|-----------------|-----------------|-----------------|-4-4-4-4-3-3-3-3-|
A|-----------2-2-2-|---------4-4-4-4-|-----------2-2-2-|-----------------|
D|-2-2-2-2-2-------|-4-4-4-4---------|-2-2-2-2-2-------|-----------------|



   E E E E E E E E   E E E E E E E E   E E E E E E E E   E E E E E E E E
G|-----------------|-----------------|-----------------|-----------------|
D|-2-2-2-2-2-------|-4-4-4-4-3-3-3-3-|---------2-2-----|-----------------|
A|-----------2-2-2-|-----------------|-------2---------|-2-2-2-2-2-2-2-4-|
D|-----------------|-----------------|-2-2-2-------2-2-|-----------------|



   E E E E E E E E   E E E E E E E E   E E E E E E E E   E E E E E E E E
G|---------------1-|-----1-4-6-4-----|---------------1-|-----1-4-6-4-----|
D|-------------3---|-2-2---------6-4-|-------------3---|-2-2---------6-4-|
A|-----1-4-4-4-----|-----------------|-----1-4-4-4-----|-----------------|
D|-4-4-------------|-----------------|-4-4-------------|-----------------|



   E E E E E E E E   E E E E E E E E   E E E E E E E E   E E E E E E E E
G|---------------1-|-----1-4-6-4-----|---------------1-|-----1-4-6-4-----|
D|-------------3---|-2-2---------6-4-|-------------3---|-2-2---------6-4-|
A|-----1-4-4-4-----|-----------------|-----1-4-4-4-----|-----------------|
D|-4-4-------------|-----------------|-4-4-------------|-----------------|



   E E E E E E E E   W   W   W   W   E E E E E E E E   E E E E E E E E
G|-----------------|---|---|---|---|-----------------|-----------------|
D|-2-2-2-2-2-2-2-2-|-1-|---|-1-|---|-----------------|-----------------|
A|-----------------|---|-2-|---|-2-|---------4-4-4-4-|-----------2-2-2-|
D|-----------------|---|---|---|---|-4-4-4-4---------|-2-2-2-2-2-------|



   E E E E E E E E   E E E E E E E E   E E E E E E E E   E E E E E E E E
G|-----------------|-----------------|-----------------|-----------------|
D|-----------------|-----------------|-4-4-4-4-3-3-3-3-|-2-2-2-2-2-------|
A|---------4-4-4-4-|-----------2-2-2-|-----------------|-----------2-2-2-|
D|-4-4-4-4---------|-2-2-2-2-2-------|-----------------|-----------------|



   E E E E E E E E   E E E E E E E E   E E E E E E E E   E E E E E E E E
G|-----------------|-----------------|-----------------|-----------------|
D|-4-4-4-4-3-3-3-3-|-----------------|-----------------|-4-4-4-4-3-3-3-3-|
A|-----------------|-----------------|-----------2-2-2-|-----------------|
D|-----------------|-4-4-4-4-3-3-3-3-|-2-2-2-2-2-------|-----------------|


                                     (repeat this part to the end..at least 4-6X)
   E E E E E E E E   E E E E E E E E     E E E E E E E E   E E E E E E E E
G|-----------------|-----------------|| ---------------1-|-----1-4-6-4----- ||
D|-----------------|-----------------||.-------------3---|-2-2---------6-4-.||
A|-----------------|-2-2-2-2-2-2-2-2-||.-----1-4-4-4-----|-----------------.||
D|-2-2-2-2-2-2-2-2-|-----------------|| -4-4-------------|----------------- ||



ENJOY!!!
Suggest correction
Give kudos to tab author, rate the tab!
1 2 3 4 5
comments
print report bad tab
guest
You may want to rate the tab now too:
select rating
Wanna post a correction for this tab? Suggest correction