Oops, an error
Loading. Please wait.

Ein Lied Das Dich Liebt Tab

1,030 views 1 this week
no commentswrite comment
1 2 3 4 5
please rate
add to favorites
launch autoscroll
font size
0
reset
how to read this tab
guitar tuner
Autoscroll
slow
fast
+/-
esc
set tempo
stop
Help us to improve Ultimate-Guitar.com Take our survey!
×
Author
Capo
3rd fret
It's just the acoustic part

Capo 3. fret

h = hammer on

                                               h
E-----0-----------0------------3------------2--3-----------------------------------------------|
B--------0-----------1------------0----------------3-------------------------------------------|
G-----------0-----------0------------0----------------2----------------------------------------|
D----------------------------------------------------------------------------------------------|
A--------------3-------------------------0-----------------------------------------------------|
E-0-------------------------3------------------------------------------------------------------|

                                               repeat 3 times |
E-----3------3------3------3------3------3------3------3------|-----0------0------0------0-----|
B-------------------------------------------------------------|--------------------------------|
G-------------------------------------------------------------|--------------------------------|
D-------------------------------------------------------------|--------------------------------|
A-3------3------3------3------2------2------2------2----------|--------------------------------|
E-------------------------------------------------------------|--0------0------0------0--------|

                                               h
E-----0-----------0------------3------------2--3-----------------------------------------------|
B--------0-----------1------------0----------------3-------------------------------------------|
G-----------0-----------0------------0----------------2----------------------------------------|
D----------------------------------------------------------------------------------------------|
A--------------3-------------------------0-----------------------------------------------------|
E-0-------------------------3------------------------------------------------------------------|

Em  C  G  D

E----------------------------------------------------------------------------------------------|
B----------------------------------------------------------------------------------------------|
G---------------------------------------------------4--4--4--4--4--4--4--4---------------------|
D-2--2--2--2--2--2--2--2---2--2--2--2--2--2--2--2---4--4--4--4--4--4--4--4---------------------|
A-3--3--3--3--3--3--3--3---2--2--2--2--2--2--2--2----------------------------------------------|
E----------------------------------------------------------------------------------------------|

Em  C  G  D

                                               repeat 3 times |
E-----3------3------3------3------3------3------3------3------|-----0------0------0------0-----|
B-------------------------------------------------------------|--------------------------------|
G-------------------------------------------------------------|--------------------------------|
D-------------------------------------------------------------|--------------------------------|
A-3------3------3------3------2------2------2------2----------|--------------------------------|
E-------------------------------------------------------------|--0------0------0------0--------|

Em


It's one of my first tabs but it sounds quite right to me. If there are improvements 
please don't hesitate to write a mail to tschaesy@web.de.

Have fun!
Suggest correction
Give kudos to tab author, rate the tab!
1 2 3 4 5
comments
print report bad tab
guest
You may want to rate the tab now too:
select rating
Wanna post a correction for this tab? Suggest correction