Oops, an error
Loading. Please wait.

Tablescrap bass

1,600 views 1 this week
3 commentsread comments
1 2 3 4 5
x 3
add to favorites
×
Save as Personal and add changes to this tab that will be seen only by you. Learn more ›
×
You can save this tab as Personal to edit and correct it or add notes. All changes will be seen only by you. Learn more »
launch autoscroll
font size
0
reset
guitar tuner
edit
Autoscroll
slow
fast
+/-
esc
set tempo
stop
Author
Artist: Stolen Babies
Song : Tablescrap
Album : There Be Squabbles ahead


Tabbed by Bassman366



Riff 1
G|------------|------------|------------|-------------|
D|------------|------------|------------|-------------|
A|---4-7---47~|---4-7----7~|---4-7----7~|---4-7-------|(x3)
E|5-5----5----|5-5----5-5--|5-5----5-5--|5-5----5--4--|
  .      .     .      .     .      .     .


Riff 2
G|---------------|---------------|
D|---------------|---------------|
A|---4-7-4--4----|---------------|(x2)
E|5--------5-5-4-|4445-4-2-42-222|




Riff 3
G|----------------|----------------|
D|----------------|----------------|
A|----------------|----------------|(x2)
E|5555777755559999|7777555544442222|


Riff 1 (x2)

Riff 2 (x2)

Riff 3 (x4)


Bridge (not perfect)
G|-----------------|
D|-----------------|
A|-----------------| (x3)
E|5----4--2--4--7--|

|------------------|
|------------------|
|------------------|(x3)
|555555555555555555|


Riff 4
G|----------------|
D|----------------|
A|----------------|(x12)
E|5555775544442222|


Riff 3 (x4)


Riff 4 (x7)


Outro
G|--------------------|-------------|
D|-----------7-9-7----|-----7-------|
A|---------7-------7--|---7---7-----|
E|55555555-----------7|7---------5--|


END

            
            
Suggest correction
Creating personal tab
Creating personal tab
You can edit any tab online and save it as your Personal.

You can edit, replace or remove any tab part or add personal notes – all changes will be seen only by you.

Personal tabs can be accessed anytime from any device, even offline.
Learn more »
Give kudos to tab author, rate the tab!
1 2 3 4 5
comments
print report bad tab
3 comments total.
0 reply
Grimwade 92 Jun 16, 2013 02:41 PM

The intro is wrong, so I'd assume the rest is as I can't be bothered checking.
I know that the notes played are an arpeggio style like so:

G|--------------------|-------------|
D|-----------7-9-7----|-----7-------|
A|---------7-------7--|---7---7-----|
E|55555555-----------7|7---------5--|

0 reply
Grimwade 92 Jun 16, 2013 02:55 PM

Sorry was going to post my correction but accidentally sent it... ignore the previous comment as I was using the outro as a template.

[ Revised Intro ]
G|---------------|---------------|---------------|---------------|
D|-------2-------|-------2-------|-------2-------|-------2-------|
A|-----3-------3~|-----3-------1~|-----3-------3~|-----3---3~-1~-|
E|-5-5-----5-5---|-5-5-----5-5---|-5-5-----5-5---|-5-5-----------|
. . . .

I may post a better version of this tab if the author doesn't.

0 reply
songomax59 10 Sep 04, 2013 12:05 PM

For me this is it :

Intro:
G|-----------------|-----------------|-----------------|-----------------|
D|-----------------|-----------------|-----------------|-----------------|
A|-------7---------|-------7---------|-------7---------|-------7---------|
E|-5-xx8---5-xx8~--|-5-xx8---5-xx6~--|-5-xx8---5-xx8~--|-5-xx8---6---8---|

Riff 1: x2
G|-----------------|-----------------|-----------------|-----------------|
D|-----------------|-----------------|-----------------|-----------------|
A|-------7---------|-------7---------|-------7---------|-------7---------|
E|-5-xx8---5-xx8---|-5-xx8---5-xx6---|-5-xx8---5-xx8---|-5-xx8---6~--8~--|


Busy to tab rest of song...
But I made a cover bass : http://www.youtube.com/watch?v=-aEaMY8auas
If it can help you :-)

guest
You may want to rate the tab now too:
select rating
Wanna post a correction for this tab? Suggest correction