Oops, an error
Loading. Please wait.

3030-150 Tab

version 5
version 5
6,404 views 6 this week
1 commentread comment
1 2 3 4 5
excellent!
x 4
add to favorites
launch autoscroll
font size
0
reset
how to read this tab
guitar tuner
Autoscroll
slow
fast
+/-
esc
set tempo
stop
Help us to improve Ultimate-Guitar.com Take our survey!
×
Author
[travis] 4,565
------------------------------|
                 "30-30/150" -| Stone Sour
------------------------------|

________________________________

Tabbed by: [travis]
Email: syn_gates_punk14@msn.com

Tuning: B F# B E G# C# (low to high)

________________________________
Key:

... = palm mute
~ = ring out chord, or vibrate note
h = hammer on
p = pull off
< = volume swell up
> = volume swell down
() = note barely heard, or barely played
* = harmonic
v = wammy bar down
^ = wammy bar up
{} = steps wammy bar is pressed down or up.
/ = slide up
\ = slide down
x = muted string with fret hand
.5 = half step
.25 = quarter step
1 = full step
2 = two steps
3 = three steps

_________________________________
Intro:
Guitars 1 and 2:
C#|---------------------------------------------------------------------------------------------------|
G#|---------------------------------------------------------------------------------------------------|
E |---------------------------------------------------------------------------------------------------|
B |---------------------------------------------------------------------------------------------------|
F#|-0--0----0-----0-------0-------0------0--0---------0--0-----0-----0------0------0-----0--0---------|
B |-0--0----0-----0-------0-------0------0--0--0-0-0--0--0-----0-----0------0------0-----0--0---0-0-0-|
    .................................................................................................

____________________________________________________
Guitars 1 and 2:
C#|-------------------------------------------------------------------------------------------------|
G#|-------------------------------------------------------------------------------------------------|
E |-------------------------------------------------------------------------------------------------|
B |---------------------------------------------------------------------------------------------0<--|
F#|-0--0----0-----0-------0-------0------0--0---------0--0-----0-----0------0------0-----0------0<--|
B |-0--0----0-----0-------0-------0------0--0--0-0-0--0--0-----0-----0------0------0-----0------0<--|
    ......................................................................................

_____________________________________________________
Guitars 1 and 2:     Play this 8 times in all.
C#|---------------------------------------------------------------------------|
G#|---------------------------------------------------------------------------|
E |---------------------------------------------------------------------------|
B |---------------------------------------------------------------------------|
F#|-------------12-12---------------------------------------------------------|
B |-12-12-13-13-------13-13-12-12-0-0-0-0-0-0-3-3-1-0-3-3-1-0-1-1-0-0-0-0-0-0-|
    .........................................................................
End of Intro.
______________________________________________________
Verse 1:
Guitars 1 and 2:
"I am a dominant gene, live as I die. Never say forever cause forever's a lie."
C#|----------------------------------------------------------------------------------------------------------|
G#|----------------------------------------------------------------------------------------------------------|
E |----------------------------------------------------------------------------------------------------------|
B |----------------------------------------------------------------------------------------------------------|
F#|-5----5---------5-----5---5------5---5-------------------5----5--------5-----5---5---5-5------------------|
B |-0----0-----0-0-0-----0---0------0---0--1-1-0-0-1-1-3-3--0----0----0-0-0-----0---0---0-0--6-6-5-5-3-3-5-5-|
               ...                         ...............            ...                
   ...............

______________________________________________________
Guitars 1 and 2:
"I can see right through you so I can ignore you. The story changes but the ending won't bore you."
C#|---------------------------------------------------------------------------------------------------------|
G#|---------------------------------------------------------------------------------------------------------|
E |---------------------------------------------------------------------------------------------------------|
B |---------------------------------------------------------------------------------------------------------|
F#|-5----5---------5-----5---5------5---5-------------------5----5--------5-----5---5----5------------------|
B |-0----0-----0-0-0-----0---0------0---0--1-1-0-0-1-1-3-3--0----0----0-0-0-----0---0----0--6-6-5-5-3-3-5-5-|
               ...                         ...............            ...                
   ...............

_______________________________________________________
"I tried to tell you but you simply obeyed. You didn't listen so they threw you a way."
Guitar 1:
C#|----------------------------------------------------------------------------------------------------------|
G#|----------------------------------------------------------------------------------------------------------|
E |----------------------------------------------------------------------------------------------------------|
B |-5-----5-----5--5-----5----5-----5--5-------------------5-----5-----5--5----5--5----5--5------------------|
F#|-5-----5-----5--5-----5----5-----5--5--6-6-5-5-6-6-8-8--5-----5-----5--5----5--5----5--5--6-6-5-5-3-3-5-5-|
B |-5-----5-----5--5-----5----5-----5--5-------------------5-----5-----5--5----5--5----5--5------------------|
                                          ...............                                
   ...............

Guitar 2:
C#|----------------------------------------------------------------------------------------------------------|
G#|----------------------------------------------------------------------------------------------------------|
E |----------------------------------------------------------------------------------------------------------|
B |-5-----5-----5--5-----5----5-----5--5-------------------5-----5-----5--5----5--5----5--5------------------|
F#|-5-----5-----5--5-----5----5-----5--5-------------------5-----5-----5--5----5--5----5--5------------------|
B |-5-----5-----5--5-----5----5-----5--5--6-6-5-5-6-6-8-8--5-----5-----5--5----5--5----5--5--6-6-5-5-3-3-5-5-|
                                          ...............                                
   ...............
_________________________________________________________
Guitars 1 and 2:
"Now all you do is talk. I donn't wanna hear your bullsh*t...is this what you want?"
C#|-------------------------------------------------------------------------------------------------------|
G#|-------------------------------------------------------------------------------------------------------|
E |-------------------------------------------------------------------------------------------------------|
B |-------------------------------------------------------------------------------------------------------|
F#|-5----5---------5----5--5-----5--5-------------------5-----5---------5-----5--5----5--5----------------|
B |-0----0-----0-0-0----0--0-----0--0--1-1-0-0-1-1-3-3--0-----0-----0-0-0-----0--0----0--0--1-1-0-0-1-1-0-|
               ...                     ...............              ...                  
  .............
End of Verse 1.
_________________________________________________________
Pre Chorus:
"This it where it begins."
Guitars 1 and 2:
C#|-----------------------------------------------------|
G#|-----------------------------------------------------|
E |-----------------------------------------------------|
B |--------------------6------------6-----6--------3h/5-|
F#|-----------------0--6--0--0---0--6--0--6--0--0--3h/5-|
B |-6-6-5-5-6-6-5-5-0--6--0--0---0--6--0--6--0--0--3h/5-|
    .................     ........     .     ....
_________________________________________________________
"This is where it ends."
Guitars 1 and 2:
C#|-----------------------------------------------------|
G#|-----------------------------------------------------|
E |-----------------------------------------------------|
B |--------------------6------------6-----6--------3h/5-|
F#|-----------------0--6--0--0---0--6--0--6--0--0--3h/5-|
B |-6-6-5-5-6-6-5-5-0--6--0--0---0--6--0--6--0--0--3h/5-|
    .................     ........     .     ....
__________________________________________________________
"This is where it begins."
Guitars 1 and 2:
C#|-----------------------------------------------------|
G#|-----------------------------------------------------|
E |-----------------------------------------------------|
B |--------------------6------------6-----6--------3h/5-|
F#|-----------------0--6--0--0---0--6--0--6--0--0--3h/5-|
B |-6-6-5-5-6-6-5-5-0--6--0--0---0--6--0--6--0--0--3h/5-|
    .................     ........     .     ....
__________________________________________________________
"And this is where it ends!"
Guitars 1 and 2:
C#|----------------------------------------------------------|
G#|----------------------------------------------------------|
E |----------------------------------------------------------|
B |--------------------6------------6-----6------------------|
F#|-----------------0--6--0--0---0--6--0--6------------------|
B |-6-6-5-5-6-6-5-5-0--6--0--0---0--6--0--6--0-0-0-0-2-2-2-2-|
                          ........     .     ...............
End of Pre-Chorus.
__________________________________________________________
Chorus 1:
"They called us a dead generation, they told us that we wouldn't survive."
Guitars 1 and 2:
C#|-------------------------------------------------------------------------------------------|
G#|-------------------------------------------------------------------------------------------|
E |------------7------------5--5--5-----------------------------------5---5---5/8-----8--8--x-|
B |------------7------------5--5--5--3----3---3h/5-----------5--------5---5---5/8-----8--8--x-|
F#|------------5------------3--3--3--3----3---3h/5-------5---5--------3---3---3/6-----6--6--x-|
B |-0--0--0--0-----------------------3----3---3h/5-------5---5--------------------------------|
    ..........                                           .
____________________________________________________________
"The left us alone in the maelstrom, as you can see we're all clearly alive."
Guitars 1 and 2:
C#|-------------------------------------------------------------------------------------------|
G#|-------------------------------------------------------------------------------------------|
E |---------7---------------5--5--5-----------------------------------5---5---5/8-----8--8--x-|
B |---------7---------------5--5--5--3----3---3h/5--(5)------5--------5---5---5/8-----8--8--x-|
F#|-3---0---5---------------3--3--3--3----3---3h/5--(5)--5---5--------3---3---3/6-----6--6--x-|
B |-3---0----------------------------3----3---3h/5--(5)--5---5--------------------------------|
    .....                                                .
_____________________________________________________________
"We know where you are and we're coming. let's see you say that sh*t to our face."
Guitar 1:
C#|-----------------------------------------------------------------------------------------------|
G#|-------------------------------------------------------------------0---8--8--8/-11---11-11-----|
E |--------10---------------9--9--9\5-----5---5/7--------7------7--7--0---x--x--x---x----x--x-----|
B |---------x---------------x--x--x-x-----x---x-x--------x------x--x--0---5--5--5/--8----8--8-----|
F#|-3---0---8---------------7--7--7\3-----3---3/5--------5------5--5----------------------------0-|
B |-3---0---------------------------------------------------------------------------------------0-|
    .....

Guitar 2:
C#|-------------------------------------------------------------------------------------------|
G#|-------------------------------------------------------------------------------------------|
E |---------7---------------5--5--5-----------------------------------5---5---5/8-----8--8--x-|
B |---------7---------------5--5--5--3----3---3h/5--(5)------5--------5---5---5/8-----8--8--x-|
F#|-3---0---5---------------3--3--3--3----3---3h/5--(5)--5---5--------3---3---3/6-----6--6--x-|
B |-3---0----------------------------3----3---3h/5--(5)--5---5--------------------------------|
    .....                                                .

_______________________________________________________________
"Thirty thirty one fifty remembers, thirty thirty one fifty hates."
Guitar 1:
C#|------------------------------------------------------------------------------13-------|
G#|------------------------------------------------------------0--8--8--8/11------x---11\-|
E |--------10---------9--9--9-12---12--12-7-----7--7-----7--7--0--x--x--x--x-----10----x--|
B |---------x---------x--x--x--x----x---x-x-----x--x-----x--x--0--5--5--5/-8-----------8\-|
F#|-3---0---8---------7--7--7/10---10--10\5-----5--5-----5--5-----------------------------|
B |-3---0---------------------------------------------------------------------------------|
    .....

Guitar 2:
C#|-----------------------------------------------------------------------------------|
G#|-----------------------------------------------------------------------------------|
E |---------7---------5--5--5-------------------------------------5--5--5/8-----8--8\-|
B |---------7---------5--5--5--3----3--3h/5--------5--------------5--5--5/8-----8--8\-|
F#|-3---0---5---------3--3--3--3----3--3h/5-----5--5--------------3--3--3/6-----6--6\-|
B |-3---0----------------------3----3--3h/5-----5--5----------------------------------|
    .....                                       .
End of Chorus 1.
_______________________________________________________________
Interlude
Guitar 3: use a flanger for this part: Set your flanger for that jet plane sound.
C#|---------------------------------------------------------------------------|
G#|---------------------------------------------------------------------------|
E |---------------------------------------------------------------------------|
B |---------------------------------------------------------------------------|
F#|-------------12-12---------------------------------------------------------|
B |-12-12-13-13-------13-13-12-12-0-0-0-0-0-0-3-3-1-0-3-3-1-0-1-1-0-0-0-0-0-0-|
    .........................................................................
_______________________________________________________________
Guitar 3: still use a flanger:                                        G2:
C#|---------------------------------------------------------------|  |--------------|
G#|---------------------------------------------------------------|  |--------------|
E |---------------------------------------------------------------|  |--------------|
B |---------------------------------------------------------------|  |-6/-|  G1-----|
F#|-------------12-12---------------------------------------------|  |-6/-| |-------|
B |-12-12-13-13-------13-13-12-12-0-0-0-0-0-0-3-3-1-0-3-3-1-0-1p0-|  |-6/-| |-12\---|
    .............................................................

After Guitar 3 finishes, Guitar 2 and Guitar 1 play those last two parts at the same time.
End of Interlude.
_________________________________________________________________
Guitars 1 and 2: Play twice.
C#|---------------------------------------------------------------------------|
G#|---------------------------------------------------------------------------|
E |---------------------------------------------------------------------------|
B |---------------------------------------------------------------------------|
F#|-------------12-12---------------------------------------------------------|
B |-12-12-13-13-------13-13-12-12-0-0-0-0-0-0-3-3-1-0-3-3-1-0-1-1-0-0-0-0-0-0-|
    .........................................................................
_________________________________________________________________
Verse 2:
In my own peculiar way, I feel mercurial."
Guitars 1 and 2:
C#|----------------------------------------------------------------------------------------------------------|
G#|----------------------------------------------------------------------------------------------------------|
E |----------------------------------------------------------------------------------------------------------|
B |----------------------------------------------------------------------------------------------------------|
F#|-5----5---------5-----5---5------5---5-------------------5----5--------5-----5---5---5-5------------------|
B |-0----0-----0-0-0-----0---0------0---0--1-1-0-0-1-1-3-3--0----0----0-0-0-----0---0---0-0--6-6-5-5-3-3-5-5-|
               ...                         ...............            ...                
   ...............

_________________________________________________________________
"Before I get ahead of myself again, I know where, but I still don't know the when."
Guitars 1 and 2:
C#|----------------------------------------------------------------------------------------------------------|
G#|----------------------------------------------------------------------------------------------------------|
E |----------------------------------------------------------------------------------------------------------|
B |----------------------------------------------------------------------------------------------------------|
F#|-5----5---------5-----5---5------5---5-------------------5----5--------5-----5---5---5-5------------------|
B |-0----0-----0-0-0-----0---0------0---0--1-1-0-0-1-1-3-3--0----0----0-0-0-----0---0---0-0--6-6-5-5-3-3-5-5-|
               ...                         ...............            ...                
   ...............

__________________________________________________________________
"You wanna live in a one sided world? Be prepared for a whole world of hurt."
Guitar 1:
C#|----------------------------------------------------------------------------------------------------------|
G#|----------------------------------------------------------------------------------------------------------|
E |----------------------------------------------------------------------------------------------------------|
B |-5-----5-----5--5-----5----5-----5--5-------------------5-----5-----5--5----5--5----5--5------------------|
F#|-5-----5-----5--5-----5----5-----5--5--6-6-5-5-6-6-8-8--5-----5-----5--5----5--5----5--5--6-6-5-5-3-3-5-5-|
B |-5-----5-----5--5-----5----5-----5--5-------------------5-----5-----5--5----5--5----5--5------------------|
                                          ...............                                
   ...............

Guitar 2:
C#|----------------------------------------------------------------------------------------------------------|
G#|----------------------------------------------------------------------------------------------------------|
E |----------------------------------------------------------------------------------------------------------|
B |-5-----5-----5--5-----5----5-----5--5-------------------5-----5-----5--5----5--5----5--5------------------|
F#|-5-----5-----5--5-----5----5-----5--5-------------------5-----5-----5--5----5--5----5--5------------------|
B |-5-----5-----5--5-----5----5-----5--5--6-6-5-5-6-6-8-8--5-----5-----5--5----5--5----5--5--6-6-5-5-3-3-5-5-|
                                          ...............                                
   ...............

___________________________________________________________________
"Now it's the Grand Facade, I don't wanna be an angel, I just wanna be God!"
Guitars 1 and 2:
C#|-------------------------------------------------------------------------------------------------------|
G#|-------------------------------------------------------------------------------------------------------|
E |-------------------------------------------------------------------------------------------------------|
B |-------------------------------------------------------------------------------------------------------|
F#|-5----5---------5----5--5-----5--5-------------------5-----5---------5-----5--5----5--5----------------|
B |-0----0-----0-0-0----0--0-----0--0--1-1-0-0-1-1-3-3--0-----0-----0-0-0-----0--0----0--0--1-1-0-0-1-1-0-|
               ...                     ...............              ...                  
  .............
End of Verse 2.
____________________________________________________________________
Chorus 2:
"They called us a dead generation, they told us that we wouldn't survive."
Guitars 1 and 2:
C#|-------------------------------------------------------------------------------------------|
G#|-------------------------------------------------------------------------------------------|
E |------------7------------5--5--5-----------------------------------5---5---5/8-----8--8--x-|
B |------------7------------5--5--5--3----3---3h/5-----------5--------5---5---5/8-----8--8--x-|
F#|------------5------------3--3--3--3----3---3h/5-------5---5--------3---3---3/6-----6--6--x-|
B |-0--0--0--0-----------------------3----3---3h/5-------5---5--------------------------------|
    ..........                                           .


_______________________________________________________________________
"The left us alone in the maelstrom, as you can see we're all clearly alive."
Guitars 1 and 2:
C#|-------------------------------------------------------------------------------------------|
G#|-------------------------------------------------------------------------------------------|
E |---------7---------------5--5--5-----------------------------------5---5---5/8-----8--8--x-|
B |---------7---------------5--5--5--3----3---3h/5--(5)------5--------5---5---5/8-----8--8--x-|
F#|-3---0---5---------------3--3--3--3----3---3h/5--(5)--5---5--------3---3---3/6-----6--6--x-|
B |-3---0----------------------------3----3---3h/5--(5)--5---5--------------------------------|
    .....                                                .

________________________________________________________________________
"We know where you are and we're coming, let's see you say that sh*t to our face."
Guitar 1:
C#|-----------------------------------------------------------------------------------------------|
G#|-------------------------------------------------------------------0---8--8--8/-11---11-11-----|
E |--------10---------------9--9--9\5-----5---5/7--------7------7--7--0---x--x--x---x----x--x-----|
B |---------x---------------x--x--x-x-----x---x-x--------x------x--x--0---5--5--5/--8----8--8-----|
F#|-3---0---8---------------7--7--7\3-----3---3/5--------5------5--5----------------------------0-|
B |-3---0---------------------------------------------------------------------------------------0-|
    .....

Guitar 2:
C#|-------------------------------------------------------------------------------------------|
G#|-------------------------------------------------------------------------------------------|
E |---------7---------------5--5--5-----------------------------------5---5---5/8-----8--8--x-|
B |---------7---------------5--5--5--3----3---3h/5--(5)------5--------5---5---5/8-----8--8--x-|
F#|-3---0---5---------------3--3--3--3----3---3h/5--(5)--5---5--------3---3---3/6-----6--6--x-|
B |-3---0----------------------------3----3---3h/5--(5)--5---5--------------------------------|
    .....                                                .

________________________________________________________________________
"Thirty thirty one fifty remembers, thirty thirty one fifty hates."
Guitar 1:
C#|------------------------------------------------------------------------------13-------|
G#|------------------------------------------------------------0--8--8--8/11------x---11\-|
E |--------10---------9--9--9-12---12--12-7-----7--7-----7--7--0--x--x--x--x-----10----x--|
B |---------x---------x--x--x--x----x---x-x-----x--x-----x--x--0--5--5--5/-8-----------8\-|
F#|-3---0---8---------7--7--7/10---10--10\5-----5--5-----5--5-----------------------------|
B |-3---0---------------------------------------------------------------------------------|
    .....

Guitar 2:
C#|-----------------------------------------------------------------------------------|
G#|-----------------------------------------------------------------------------------|
E |---------7---------5--5--5-------------------------------------5--5--5/8-----8--8\-|
B |---------7---------5--5--5--3----3--3h/5--------5--------------5--5--5/8-----8--8\-|
F#|-3---0---5---------3--3--3--3----3--3h/5-----5--5--------------3--3--3/6-----6--6\-|
B |-3---0----------------------3----3--3h/5-----5--5----------------------------------|
    .....

End of Chorus 2.
_________________________________________________________________________
Interlude 2:
"HATES!"
Guitars 1 and 2:
C#|------------------------------------------------------------------------------------------|
G#|------------------------------------------------------------------------------------------|
E |------------------------------------------------------------------------------------------|
B |------------------------------------------------------------------------------------------|
F#|-0--0-----0-----0------0------0-----0--0---------0--0-----0-----0-----0--------0-----0--0-|
B |-0--0-----0-----0------0------0-----0--0--0-0-0--0--0-----0-----0-----0--------0-----0--0-|
    ........................................................................................

End of Interlude 2.
____________________________________________________________
Interlude 3:
Guitars 1 and 2:
C#|--------------------------------------------------|
G#|--------------------------------------------------|
E |--------------------------------------------------|
B |-4-------------------------------------------0----|
F#|-0-------------------------------------------0----|
B |-0-------------------------------------------0----|

Guitar 3:
C#|----------------------------------------------------|
G#|----------------------------------------------------|
E |----------------------------------------------------|
B |-3*--(3)vv{3.5}^^(3)----(3)vv{3.5}^^(3)--(3)vv{4.5}-|
F#|----------------------------------------------------|
B |----------------------------------------------------|

Guitar 4: use a harmonizer, or a "Clone Theory" pedal.
C#|-10------------------------------------------------|
G#|--x-------------------------------------------6----|
E |--7------------------------------------------------|
B |---------------------------------------------------|
F#|---------------------------------------------------|
B |---------------------------------------------------|

Guitar 5:
C#|----------------------|
G#|-7~--------------7~/--|
E |-7~--------------7~/--|
B |-7~--------------7~/--|
F#|-5~--------------5~/--|
B |----------------------|
______________________________________________________________
Guitars 1 and 2:
C#|-------------------------------------------------------------|
G#|-------------------------------------------------------------|
E |-3---------------------3/5-----------------5/7------------7/-|
B |-1---------------------1/3-----------------3/5------------5/-|
F#|-1---------------------1/3-----------------3/5------------5/-|
B |-1---------------------1/3-----------------3/5------------5/-|

Guitar 4: w/harmonizer.
C#|--------------------------8---------------------------------------------|
G#|-6--(6)/8---8----------10\6----------------8-----8--(8)/10--10------10--|
E |-------------------------------------------5-----5--(5)/-7---7-------7--|
B |------------------------------------------------------------------------|
F#|------------------------------------------------------------------------|
B |------------------------------------------------------------------------|

Guitar 5:
C#|----------------------------------------------------------------|
G#|-\8~--------------------8/10~--------------10/12-----------12/--|
E |-\8~--------------------8/10~--------------10/12-----------12/--|
B |-\8~--------------------8/10~--------------10/12-----------12/--|
F#|-\6~--------------------6/-8~---------------8/10-----------10/--|
B |----------------------------------------------------------------|

________________________________________________________________
Guitar 1:
C#|---------------------------------------------------------------------------|
G#|---------------------------------------------------------------------------|
E |-/8---(8)/10--(10)\-7-------------7/8--------------------------------------|
B |-/6---(6)/-8---(8)\-x-------------x-x-------------7-----7h8----7-----------|
F#|-/6---(6)/-8---(8)\-5-------------5/6----------------------------10-----6/-|
B |-/6---(6)/-8---(8)\--------------------------------------------------------|

Guitar 2:
C#|----------------------------------------------------------|
G#|----------------------------------------------------------|
E |-2~-----2---2~-----2/3~------------3~--------------3/-----|
B |-0~-----0---0~-----0/1~------------1~--------------1/-----|
F#|-0~-----0---0~-----0/1~------------1~--------------1/-----|
B |-0~-----0---0~-----0/1~------------1~--------------1/-----|

Guitar 4: harmonizer.
C#|-----------------------------------------------------------------|
G#|-11-----(11)/13----(13)\10-----10----10h/11---10\8----------10---|
E |--8-----(8)-/10----(10)\-7------7-----7h/-8----7\5---------------|
B |-----------------------------------------------------------------|
F#|-----------------------------------------------------------------|
B |-----------------------------------------------------------------|

Guitar 3:
C#|----------------------------------------------------------------|
G#|----------------------------------------------------------------|
E |--------------------7-------------7/8-----------------------8/--|
B |--------------------x-------------x-x-----------------------x---|
F#|--------------------5-------------5/6-----------------------6/--|
B |----------------------------------------------------------------|

_____________________________________________________________________
Guitar 1:
C#|---------------------------------------------------------------|
G#|---------------------------------------------------------------|
E |---------------------------------------------------------------|
B |----------7---7h8---7------------------------------------------|
F#|-/8--------------------8----8/10--------------10/11---(11)/13--|
B |---------------------------------------------------------------|

Guitar 2:
C#|---------------------------------------------------------------------------|
G#|------------------4h/8-----8-----8~-------8h/9-----9-9-9-9---11-11---------|
E |-5~-------5~------3h/7-----7-----7~-------7h/8-----8-8-8-8---10-10---------|
B |-3~-------3~------1h/5-----5-----5~-------5h/6-----6-6-6-6----8--8---------|
F#|-3~-------3~---------------------------------------------------------------|
B |-3~-------3~----------------------------------------------------------12\--|

Guitar 3:
C#|--------------------------------------------------------------------------------------------|
G#|--------------------------------------------------------------------------------------------|
E |-/10------------------------10/12-12-12--12-12-12--12--12-12-12-12--------------------------|
B |---x-------------------------x--x--x--x---x--x--x---x---x--x--x--x--/10-10-10-10/12-12--12\-|
F#|--/8-------------------------8/10-10-10--10-10-10--10--10-10-10-10--/11-11-11-11/13-13--13\-|
B |--------------------------------------------------------------------------------------------|

Guitar 4:
C#|--------------------------------------------|
G#|-10h11---10--------------8h/10--------------|
E |------------10------------------10------12--|
B |------------------------------------12------|
F#|--------------------------------------------|
B |--------------------------------------------|

End of Interlude 3.
________________________________________________________________________
Interlude 4:
GUitars 1 and 2:
C#|----------------------------------------------------------------------------|
G#|----------------------------------------------------------------------------|
E |----------------------------------------------------------------------------|
B |----------------------------------------------------------------------------|
F#|----------------------------------------------------------------------------|
B |-0-10-12-0-12-13-0-10-0-10-12-0-8-7-0-8-0-10-12-0-12-13-0-10-0-12-0-8-7-0-8-|

________________________________________________________________________
Guitar 1:
C#|-------------------------------------------------------------------|
G#|-------------------------------------------------------------------|
E |-------------------------------------------------------------------|
B |-------------------------------------------------------------------|
F#|-0-10-12-0-12-13-0-10-0-10-12-0-8-7-0-7-0-10--12--0--12--13--0--10-|
B |------------------------------------------10--12--0--12--13--0--10-|
                                                     .          .

Guitar 2:
C#|-------------------------------------------------------------------|
G#|-------------------------------------------------------------------|
E |-------------------------------------------------------------------|
B |-------------------------------------------------------------------|
F#|------------------------------------------10--12--0--12--13--0--10-|
B |-0-10-12-0-12-13-0-10-0-10-12-0-8-7-0-8-0-10--12--0--12--13--0--10-|
                                                     .          .
_________________________________________________________________________
Guitar 1:
C#|--------------------------|
G#|--------------------------|
E |--------------------------|
B |--------------------------|
F#|-0--10--12--0--8--7--0--8-|
B |-0--10--12--0--8--7--0--8-|
    .          .        .

Guitar 2:
C#|--------------------------|
G#|--------------------------|
E |--------------------------|
B |--------------------------|
F#|-0--10--12--0--8--7--0--8-|
B |-0--10--12--0--8--7--0--8-|
    .          .        .
________________________________________________________________________
Verse 3:
"I am a fu**ing machine, fueled by the past. Memory's a memory until it's a fact."
Guitars 1 and 2:
C#|----------------------------------------------------------------------------------------------------------|
G#|----------------------------------------------------------------------------------------------------------|
E |----------------------------------------------------------------------------------------------------------|
B |----------------------------------------------------------------------------------------------------------|
F#|-5----5---------5-----5---5------5---5-------------------5----5--------5-----5---5---5-5------------------|
B |-0----0-----0-0-0-----0---0------0---0--1-1-0-0-1-1-3-3--0----0----0-0-0-----0---0---0-0--6-6-5-5-3-3-5-5-|
               ...                         ...............            ...                
   ...............

Guitar 3: Just tremelo pick this note for a long time.
C#|----|
G#|----|
E |-7!-|
B |----|
F#|----|
B |----|

____________________________________________________________________________
"I can bury the hatchet and let some sh*t go, but I got too many grudges to hold."
Guitars 1 and 2:
C#|----------------------------------------------------------------------------------------------------------|
G#|----------------------------------------------------------------------------------------------------------|
E |----------------------------------------------------------------------------------------------------------|
B |----------------------------------------------------------------------------------------------------------|
F#|-5----5---------5-----5---5------5---5-------------------5----5--------5-----5---5---5-5------------------|
B |-0----0-----0-0-0-----0---0------0---0--1-1-0-0-1-1-3-3--0----0----0-0-0-----0---0---0-0--6-6-5-5-3-3-5-5-|
               ...                         ...............            ...                
   ...............

Guitar 3: Just tremelo pick this note for a long time.
C#|----|
G#|----|
E |-7!-|
B |----|
F#|----|
B |----|

_____________________________________________________________________________
"Saw a lot of people die in the end, I never wanna walk that road again."
Guitar 1:
C#|----------------------------------------------------------------------------------------------------------|
G#|----------------------------------------------------------------------------------------------------------|
E |----------------------------------------------------------------------------------------------------------|
B |-5-----5-----5--5-----5----5-----5--5-------------------5-----5-----5--5----5--5----5--5------------------|
F#|-5-----5-----5--5-----5----5-----5--5--6-6-5-5-6-6-8-8--5-----5-----5--5----5--5----5--5--6-6-5-5-3-3-5-5-|
B |-5-----5-----5--5-----5----5-----5--5-------------------5-----5-----5--5----5--5----5--5------------------|
                                          ...............                                
   ...............

Guitar 2:
C#|----------------------------------------------------------------------------------------------------------|
G#|----------------------------------------------------------------------------------------------------------|
E |----------------------------------------------------------------------------------------------------------|
B |-5-----5-----5--5-----5----5-----5--5-------------------5-----5-----5--5----5--5----5--5------------------|
F#|-5-----5-----5--5-----5----5-----5--5-------------------5-----5-----5--5----5--5----5--5------------------|
B |-5-----5-----5--5-----5----5-----5--5--6-6-5-5-6-6-8-8--5-----5-----5--5----5--5----5--5--6-6-5-5-3-3-5-5-|
                                          ...............                                
   ...............

______________________________________________________________________________
"Now I will never give up. I don't wanna have it all, I just wanna have enough."
Guitars 1 and 2:
C#|-------------------------------------------------------------------------------------------------------|
G#|-------------------------------------------------------------------------------------------------------|
E |-------------------------------------------------------------------------------------------------------|
B |-------------------------------------------------------------------------------------------------------|
F#|-5----5---------5----5--5-----5--5-------------------5-----5---------5-----5--5----5--5----------------|
B |-0----0-----0-0-0----0--0-----0--0--1-1-0-0-1-1-3-3--0-----0-----0-0-0-----0--0----0--0--1-1-0-0-1-1-0-|
               ...                     ...............              ...                  
  .............

Guitar 3: Just tremelo pick this note for a long time.
C#|----|
G#|----|
E |-7!-|
B |----|
F#|----|
B |----|

End of Verse 3.
_______________________________________________________________________________
Pre Chorus 2:
"This is where it begins, this is where it ends."
Guitars 1 and 2: Play this twice.
C#|-----------------------------------------------------|
G#|-----------------------------------------------------|
E |-----------------------------------------------------|
B |--------------------6------------6-----6--------3h/5-|
F#|-----------------0--6--0--0---0--6--0--6--0--0--3h/5-|
B |-6-6-5-5-6-6-5-5-0--6--0--0---0--6--0--6--0--0--3h/5-|
    .................     ........     .     ....

_______________________________________________________________________________
"Ah this is where it beegins, and this is where it ends!"
Guitars 1 and 2:
C#|----------------------------------------------------------------------|
G#|----------------------------------------------------------------------|
E |----------------------------------------------------------------------|
B |----------------------------------------------------------------------|
F#|----------------------------------------------------------------------|
B |-6-5-6-5-0-6-0--0-0-6-0-0-6-0-0-3-5--6-5-6-5-0-6-0-0--0-6-0-6-0-0-3-5-|

End of Pre Chorus 2.
_______________________________________________________________________________
Chorus 3:
"They called us a Dead Generation, they told us that we wouldn't survive."
Guitars 1 and 2:
C#|-------------------------------------------------------------------------------------------|
G#|-------------------------------------------------------------------------------------------|
E |------------7------------5--5--5-----------------------------------5---5---5/8-----8--8--x-|
B |------------7------------5--5--5--3----3---3h/5-----------5--------5---5---5/8-----8--8--x-|
F#|------------5------------3--3--3--3----3---3h/5-------5---5--------3---3---3/6-----6--6--x-|
B |-0--0--0--0-----------------------3----3---3h/5-------5---5--------------------------------|
    ..........                                           .

_______________________________________________________________________________
"They left us alone in the maelstrom, as you can see we're all clearly alive."
Guitars 1 and 2:
C#|-------------------------------------------------------------------------------------------|
G#|-------------------------------------------------------------------------------------------|
E |---------7---------------5--5--5-----------------------------------5---5---5/8-----8--8--x-|
B |---------7---------------5--5--5--3----3---3h/5--(5)------5--------5---5---5/8-----8--8--x-|
F#|-3---0---5---------------3--3--3--3----3---3h/5--(5)--5---5--------3---3---3/6-----6--6--x-|
B |-3---0----------------------------3----3---3h/5--(5)--5---5--------------------------------|
    .....                                                .

_______________________________________________________________________________
"We know where you are and we're coming, let's see you say that sh*t to our face."
Guitar 1:
C#|-----------------------------------------------------------------------------------------------|
G#|-------------------------------------------------------------------0---8--8--8/-11---11-11-----|
E |--------10---------------9--9--9\5-----5---5/7--------7------7--7--0---x--x--x---x----x--x-----|
B |---------x---------------x--x--x-x-----x---x-x--------x------x--x--0---5--5--5/--8----8--8-----|
F#|-3---0---8---------------7--7--7\3-----3---3/5--------5------5--5----------------------------0-|
B |-3---0---------------------------------------------------------------------------------------0-|
    .....

Guitar 2:
C#|-------------------------------------------------------------------------------------------|
G#|-------------------------------------------------------------------------------------------|
E |---------7---------------5--5--5-----------------------------------5---5---5/8-----8--8--x-|
B |---------7---------------5--5--5--3----3---3h/5--(5)------5--------5---5---5/8-----8--8--x-|
F#|-3---0---5---------------3--3--3--3----3---3h/5--(5)--5---5--------3---3---3/6-----6--6--x-|
B |-3---0----------------------------3----3---3h/5--(5)--5---5--------------------------------|
    .....                                                .
________________________________________________________________________________
"Thirty thirty one fifty remembers,"
Guitar 1:
C#|----------------------------------------------------------------|
G#|----------------------------------------------------------------|
E |--------10---------9--9--9-12---12--12-7-----7--7\--------------|
B |---------x---------x--x--x--x----x---x-x-----x--x---------------|
F#|-3---0---8---------7--7--7/10---10--10\5-----5--5\----5--5--5---|
B |-3---0------------------------------------------------5--5--5---|
    .....                                                .......

Guitar 2:
C#|----------------------------------------------------------------|
G#|----------------------------------------------------------------|
E |---------7---------5--5--5--------------------------------------|
B |---------7---------5--5--5--3----3--3h/5-----5--5---------------|
F#|-3---0---5---------3--3--3--3----3--3h/5-----5--5-----5--5--5---|
B |-3---0----------------------3----3--3h/5-----5--5-----5--5--5---|
    .....                                                .......

_______________________________________________________________________________
"thirty thirty one fity hates!"

No guitars on this quick two seconds.

End of Chorus 3.
_______________________________________________________________________________
Outro:
Guitars 1 and 2:
C#|---------------------------------------------------------------------------|
G#|---------------------------------------------------------------------------|
E |---------------------------------------------------------------------------|
B |---------------------------------------------------------------------------|
F#|-------------12-12---------------------------------------------------------|
B |-12-12-13-13-------13-13-12-12-0-0-0-0-0-0-3-3-1-0-3-3-1-0-1-1-0-0-0-0-0-0-|
    .........................................................................


_______________________________________________________________________________
Guitars 1 and 2:
C#|---------------------------------------------------------------------------|
G#|---------------------------------------------------------------------------|
E |---------------------------------------------------------------------------|
B |---------------------------------------------------------------------------|
F#|-------------12-12---------------------------------------------------------|
B |-12-12-13-13-------13-13-12-12-0-0-0-0-0-0-3-3-1-0-3-3-1-0-1-1-0-0-0-0-0-0-|
    .........................................................................

_______________________________________________________________________________
Guitars 1 and 2:
C#|---------------------------------------------------------------------------|
G#|---------------------------------------------------------------------------|
E |---------------------------------------------------------------------------|
B |---------------------------------------------------------------------------|
F#|-------------12-12---------------------------------------------------------|
B |-12-12-13-13-------13-13-12-12-0-0-0-0-0-0-3-3-1-0-3-3-1-0-1-1-0-0-0-0-0-0-|
    .........................................................................

_______________________________________________________________________________
Guitars 1 and 2:
C#|-------------------------------------------------------------------------|
G#|-------------------------------------------------------------------------|
E |-------------------------------------------------------------------------|
B |-------------------------------------------------------------------------|
F#|-------------12-12--------------------------------------------------1--0-|
B |-12-12-13-13-------13-13-12-12-0-0-0-0-0-0-3-3-1-0-3-3-1-0-1-1-0-0--1--0-|
    .................................................................
_______________________________________________________________________________
That's all of it. If you don't want to tune your guitar all the way to a B, you can
tune to (CGCFAD), or (DADGBE), but it will sound a little different.
Please rate this tab and comment it.
[travis]
Suggest correction new What's this?
You can suggest a correction to this tab. Community and Mods will review your correction and vote to approve or reject it.
comments
print report bad tab
1 comment total.
+2 reply
[travis] 4,565 wrote on August 30 2007, 12:48 am

Sorry folks about this format, this site f**king messed up the palm muting, but it should be obvious what's muted. The ...s are pushed under each other, and this site put it in a gay ass format. Sorry again. So don't freakin' complain.

guest
You may want to rate the tab now too:
select rating
Please do not post tabs as comments. Select "correction" instead!