Oops, an error
Loading. Please wait.

Absolute Zero bass

version 1
version 1

Whole song

Interactive

7,050 views 24 this week
no commentswrite comment
1 2 3 4 5
x 3
add to favorites
×
Save as Personal and add changes to this tab that will be seen only by you. Learn more ›
×
You can save this tab as Personal to edit and correct it or add notes. All changes will be seen only by you. Learn more »
launch autoscroll
font size
0
reset
guitar tuner
edit
Autoscroll
slow
fast
+/-
esc
set tempo
stop
Hey Guys, this is my tab to Absolute Zero by Stone Sour. This song sounds amazing, my 
personal favorite of the new record "House Of Gold And Bones Part 1", that's why I made a 
tab for it. The . . . symbolizes, which notes has to be palm-muted. Tuning is Drop Db.
Have fun with this song and please don't forget to rate this tab.
If you liked it, check out other tabs made by me. ;)

Intr
Gb|---------------|
Db|---------------|
Ab|---------------|
Db|------------12/|
                E
Main Riff (2x)
Gb|----------------|-----------------|----------------|-----------------|
Db|----------------|-----------------|----------------|-----------------|
Ab|----------------|-----------------|----------------|-----------------|
Db|0-1~~~0-0-0-0-3-|5-3-6-5-3-5~~~12/|0-1~~~0-0-0-0-3-|3-6-6-5-5-3~~~12/|
           . . .                              . . .
   E Q   E E E E E  E E E E E Q   E   E Q   E E E E E  E E E E E Q   E

Verse (2x)
Gb|----------------|----------------|----------------|-----------------|
Db|----------------|----------------|----------------|-----------------|
Ab|----------------|----------------|----------------|-----------------|
Db|0-0-0-0-0-0-0-0-|0-0-0-12/~0-1~~~|0-0-0-0-0-0-0-3-|5-3-6-5-3-5~~~12/|
     . . . . . . .  . . .              . . . . . .
   E E E E E E E E  E E E Q   E Q    E E E E E E E E  E E E E E Q   E

Gb|----------------|----------------|----------------|-------------------|
Db|----------------|----------------|----------------|-------------------|
Ab|----------------|----------------|----------------|-------------------|
Db|0-0-0-0-0-0-0-0-|0-0-0-12/~0-1~~~|0-0-0-0-0-0-0-3-|3-6-6-5-5-3~~~(12/)|
     . . . . . . .  . . .              . . . . . .
   E E E E E E E E  E E E Q   E Q    E E E E E E E E  E E E E E Q   E

Pre-Chorus
Gb|----------------|----------------|----------------|----------------|
Db|----------------|----------------|----------------|----------------|
Ab|0\13//0---------|----------------|0\13//0---------|----------------|
Db|----------------|----------------|----------------|--------------0-|
   E Q   E H        F                E Q   E H        H       Q   E E

Gb|----------------|----------------|----------------|----------------|
Db|----------------|----------------|----------------|----------------|
Ab|1~~~~~0~~~--0---|0---0---3-1-0---|1~~~~~0~~~--0---|0-0-1-1-2-2-3-4-|
Db|----------0---0-|--0---0-------0-|----------0---0-|----------------|
   Q.    Q   E E E  E E E E E E E E  Q.    Q   E E E  E E E E E E E E

Chorus
Gb|----------------|----------------|----------------|----------------|
Db|----------------|----------------|----------------|----------------|
Ab|5-0-5~~~3---3~~~|1~~--1---5-3-1~~|1---1~~3---3~~5-|----------0-0---|
Db|----------5-----|---3---3--------|--3------5------|0-0-0-0-0-----0-|
   E E Q   E E Q    E. E E E E E E   E E E. E E E. E  E E E E E E E E

Gb|----------------|----------------|----------------|------------------|
Db|----------------|----------------|----------------|------------------|
Ab|5~~~5~~~3---3~~~|1~~--1---5-3-1~~|1---1~~5-5-5-3~~|~~~~~~~~~~~~4~~---|
Db|----------5-----|---3---3--------|--3-------------|---------------12/|
   Q   Q   E E Q    E. E E E E E E.  E E E. E E E E.  H.          E. S

Main Riff (2x)
Verse (1x)
Pre-Chorus

Chorus 2
Gb|----------------|----------------|----------------|----------------|
Db|----------------|----------------|----------------|----------------|
Ab|5-0-5~~~3---3~~~|1~~--1---5-3-1~~|1---1~~3---3~~5-|----------0-0---|
Db|----------5-----|---3---3--------|--3------5------|0-0-0-0-0-----0-|
   E E Q   E E Q    E. E E E E E E   E E E. E E E. E  E E E E E E E E

Gb|----------------|----------------|----------------|----------------|
Db|----------------|----------------|----------------|----------------|
Ab|5~~~5~~~3---3~~~|1~~--1---5-3-1~~|1---1~~5-5-5-3~~|~~~~~~~~333~~~~~|
Db|----------5-----|---3---3--------|--3-------------|----------------|
   Q   Q   E E Q    E. E E E E E E.  E E E. E E E E.  H       SSQ.

Gb|----------------|----------------|
Db|----------------|----------------|
Ab|~~~~333~~~~~~~~~|333~~~~~~~~~4~~~|
Db|----------------|----------------|
   Q   SSQ.    Q    SSQ.    Q   Q

Bridge 1
Gb|----------------|----------------|----------------|----------------|
Db|----------------|----------------|----------------|----------------|
Ab|5-6-5~~~------1-|--3---0---0-1-0-|5-6-5~~~------1-|--1---1-3~~~3~~~| 4x
Db|--------0-0-0---|0---0---0-------|--------0-0-0---|0---0-----------|
           . . .    .   .   .                . . .    .   .
   E E Q   E E E E  E E E E E E E E  E E Q   E E E E  E E E E Q   Q

Bridge 2
Gb|----------------|----------------|----------------|----------------|
Db|----------------|----------------|------------0~~~|----------------|
Ab|1~~~~~~\13~~~~~~|~~~~~~~/1-3~~~1-|0~~~----0~~~----|0~~~~\5~~~3-1-0-|
Db|----------------|----------------|----0~~~--------|----------------|
   H       H        H       E Q   E  Q   Q   Q   Q    Q.    Q   E E E
Gb|----------------|----------------|----------------|-----------------|
Db|----------------|----------------|----------------|-----------------|
Ab|1~~~~~~\13~~~~~~|~~~~~~~/1-3~~~1-|0~~~~~~~~~~~~~0-|1-1-3-3-5-5-6----|
Db|----------------|----------------|----------------|--------------12/|
   H       H        H       E Q   E  H.          E E  E E E E E E E E

Last Verse
Gb|----------------|----------------|----------------|-----------------|
Db|----------------|----------------|----------------|-----------------|
Ab|----------------|----------------|----------------|-----------------|
Db|0-0-0-0-0-0-0-0-|0-0-0-12/~0-1~~~|0-0-0-0-0-0-0-3-|5-3-6-5-3-5~~~12/|
     . . . . . . .  . . .              . . . . . .
   E E E E E E E E  E E E Q   E Q    E E E E E E E E  E E E E E Q   E

Gb|----------------|----------------|----------------|-----------------|
Db|----------------|----------------|----------------|-----------------|
Ab|----------------|----------------|--------------0-|1-1-3-3-5-5-6----|
Db|0-0-0-0-0-0-0-0-|0-0-0-12/~0-1~~~|----------------|--------------12/|
     . . . . . . .  . . .
   E E E E E E E E  E E E Q   E Q    H.          E E  E E E E E Q   E

Last Chorus
Gb|----------------|----------------|----------------|----------------|
Db|----------------|----------------|----------------|----------------|
Ab|5-0-5~~~3---3~~~|1~~--1---5-3-1~~|1---1~~3---3~~5-|----------0-0---|
Db|----------5-----|---3---3--------|--3------5------|0-0-0-0-0-----0-|
   E E Q   E E Q    E. E E E E E E   E E E. E E E. E  E E E E E E E E
Gb|----------------|----------------|----------------|----------------|
Db|----------------|----------------|----------------|----------------|
Ab|5~~~5~~~3---3~~~|1~~--1---5-3-1~~|1---1~~3---3~~5-|----------0-0---|
Db|----------5-----|---3---3--------|--3------5------|0-0-0-0-0-----0-|
   Q   Q   E E Q    E. E E E E E E   E E E. E E E. E  E E E E E E E E
Gb|----------------|----------------|----------------|----------------|
Db|----------------|----------------|----------------|----------------|
Ab|5~~~5~~~3---3~~~|1~~--1---5-3-1~~|1---1~~3---3~~5-|----------0-0---|
Db|----------5-----|---3---3--------|--3------5------|0-0-0-0-0-----0-|
   Q   Q   E E Q    E. E E E E E E   E E E. E E E. E  E E E E E E E E

Gb|----------------|----------------|----------------|-----------------|
Db|----------------|----------------|----------------|-----------------|
Ab|5~~~5~~~3---3~~~|1~~--1---5-3-1~~|1---1~~5-5-5-3~~|~~~~333~~~~~4----|
Db|----------5-----|---3---3--------|--3-------------|--------------12/|
   Q   Q   E E Q    E. E E E E E E.  E E E. E E E E.  Q   SSQ.    E Q

Outro
Gb|----------------|-----------------|----------------|-----------------|
Db|----------------|-----------------|----------------|-----------------|
Ab|----------------|-----------------|----------------|-----------------|
Db|0-1~~~0-0-0-0-3-|5-3-6-5-3-5~~~12/|0-1~~~0-0-0-0-3-|3-6-6-5-5-3~~~12/|
           . . .                              . . .
   E Q   E E E E E  E E E E E Q   E   E Q   E E E E E  E E E E E Q   E

Gb|----------------|-----------------|----------------|----------------|
Db|----------------|-----------------|----------------|----------------|
Ab|----------------|-----------------|----------------|----------------|
Db|0-1~~~0-0-0-0-3-|5-3-6-5-3-5~~~12/|0-1~~~0-0-0-0-3-|5-3-6-5-3-5~~~--|
           . . .                              . . .
   E Q   E E E E E  E E E E E Q   E   E Q   E E E E E  E E E E E Q   E

W = Whole note
H = Half note
Q = Quarter note
E = Eighth note
S = Sixteenth note
. = makes the note a half longer
\ = Slide up
/ = Slide down
h = Hammer-on
p = Pull-off
b = Bending
X = Mute note

            
            
Suggest correction
Creating personal tab
Creating personal tab
You can edit any tab online and save it as your Personal.

You can edit, replace or remove any tab part or add personal notes – all changes will be seen only by you.

Personal tabs can be accessed anytime from any device, even offline.
Learn more »
Give kudos to tab author, rate the tab!
1 2 3 4 5
comments
print report bad tab
guest
You may want to rate the tab now too:
select rating
Wanna post a correction for this tab? Suggest correction