Oops, an error
Loading. Please wait.

Blotter Tab

version 4
version 4

Whole song

Interactive

246 views 1 this week
no commentswrite comment
1 2 3 4 5
3 more votes to show rating
add to favorites
launch autoscroll
font size
0
reset
how to read this tab
guitar tuner
Autoscroll
slow
fast
+/-
esc
set tempo
stop
Help us to improve Ultimate-Guitar.com Take our survey!
×
Author
Difficulty
Tuning
intermediate
B F# B E G# C#
Stone Sour - Blotter
Tabbed by ReinierK (please don't steal my work)

Legend:
h    - hammer on             T   - tap
p    - pull off              TP  - tremolo picking
b    - bend string up        PM  - palm muting
r    - release bend          \n/ - tremolo arm dip; n = amount to dip
/    - slide up              \n  - tremolo arm down
\    - slide down            n/  - tremolo arm up
v    - vibrato               /n\ - tremolo arm inverted dip
t    - right hand tap        =   - hold bend 
s    - legato slide          <>  - volume swell louder/softer
S    - shift slide           x   - muted slash
*    - natural harmonic      o   - single note slash
[n]  - artificial harmonic   ·/. - pick slide
n(n) - tapped harmonic
tr   - trill

Tuning:
Db - 6th string (thin)
Ab - 5th string
E  - 4th string
B  - 3rd string
Gb - 2nd string
B  - 1st string (thick)



[Intro]
Dd|------------------------------|----------------------------|
Ab|------------------------------|----------------------------|
E |------------------9-----3-4-3-|------------------3-----333-|
B |-2-0-3-6-3-2-0-2--9--2--3-4-3-|-2-0-3-6-3-2-0-2--3--2--333-| x2
Gb|-2-0-3-6-3-2-0-2--7--2--1-2-1-|-2-0-3-6-3-2-0-2--1--2--111-|
B |-2-0-3-6-3-2-0-2-----2--------|-2-0-3-6-3-2-0-2-----2------|


[Verse 1]
Dd|----------------------------------|---------------------------------|
Ab|----------------------------------|---------------------------------|
E |-------3-----------3-------5*5*5*-|-------3-----------3-------------|
B |-------3-----------3-------5*5*5*-|-------3-----------3-------------| x2
Gb|-------1-----------1--------------|-------1-----------1-----------3-|
B |-3-2-0---0-2-3-2-3---0-2-3--------|-3-2-0---0-2-3-2-3---0-2-3-5-3-3-|
PM  . . .   . . . . .   . . .          . . .   . . . . .   . . . . .
    I only wanted, only wanted...


[Pre-chorus]
Dd|------------------------------------|--------------------------------|
Ab|------------------------------------|--------------------------------|
E |--------------5/7-------3---------5-|--------------------------------|
B |-2----5--2--223/7--2--223--2--223-3-|-3---/10-2----3---/10-2----12\\-|
Gb|-2----3--2--223/5--2--221--2--223-3-|-3---/8--2----3---/8--2----12\\-|
B |-2--223--2--223----2--22---2--223---|-3-------2----3-------2----12\\-|
PM     ..
    Skin. To feel you...

Dd|----------------------------------|---------------------------------|
Ab|----------------------------------|---------------------------------|
E |-------3-----------3-------5*5*5*-|-------3-----------3-------------|
B |-------3-----------3-------5*5*5*-|-------3-----------3-------------|
Gb|-3-2-0-1-0-2-3-2-3-1-0-2-3--------|-3-2-0-1-0-2-3-2-3-1-0-2-3-5-3-3-|
B |-3-2-0---0-2-3-2-3---0-2-3--------|-3-2-0---0-2-3-2-3---0-2-3-5-3-3-|
PM  . . .   . . . . .   . . .          . . .   . . . . .   . . . . .

Dd|----------------------------------|---------------------------|
Ab|----------------------------------|---------------------------|
E |-------3-----------3-------5*5*5*-|-------3-----------3-------|
B |-------3-----------3-------5*5*5*-|-------3-----------3-------|
Gb|-3-2-0-1-0-2-3-2-3-1-0-2-3--------|-3-2-0-1-0-2-3-2-3-1-0-2-3-|
B |-3-2-0---0-2-3-2-3---0-2-3--------|-3-2-0---0-2-3-2-3---0-2-3-|
PM  . . .   . . . . .   . . .          . . .   . . . . .   . . .


[Verse 2]
Dd|----------------------------------|---------------------------------|
Ab|----------------------------------|---------------------------------|
E |-------3-----------3-------5*5*5*-|-------3-----------3-------------|
B |-------3-----------3-------5*5*5*-|-------3-----------3-------------| x2
Gb|-------1-----------1--------------|-------1-----------1-----------3-|
B |-3-2-0---0-2-3-2-3---0-2-3--------|-3-2-0---0-2-3-2-3---0-2-3-5-3-3-|
PM  . . .   . . . . .   . . .          . . .   . . . . .   . . . . .
    I din't wanna, didn't wanna...


[Pre-chorus]
Dd|------------------------------------|--------------------------------|
Ab|------------------------------------|--------------------------------|
E |--------------5/7-------3---------5-|--------------------------------|
B |-2----5--2--223/7--2--223--2--223-3-|-3---/10-2----3---/10-2----12\\-|
Gb|-2----3--2--223/5--2--221--2--223-3-|-3---/8--2----3---/8--2----12\\-|
B |-2--223--2--223----2--22---2--223---|-3-------2----3-------2----12\\-|
PM     ..
    One. To feel you there...



[Chorus]
Dd|---------------------------|-------------------------|
Ab|---------------------------|-------------------------|
E |---------------------------|-------------------------|
B |-5-2--0-2--5-2--0-2--0-5b6-|-5-2--0-2--5-2--0-2--0-3-| x2
Gb|-5-2--0-2--5-2--0-2--0-5b6-|-5-2--0-2--5-2--0-2--0-3-|
B |-5-2--0-2--5-2--0-2--0-5b6-|-5-2--0-2--5-2--0-2--0-3-|
                        Incredible!...


[Bridge]
(guitar 1)
Dd|---|---|----------|---------------|
Ab|---|---|----------|---------------|
E |---|---|----------|---------------|
B |-2-|-2-|-2--------|-2-------------|
Gb|-2-|-2-|-2--------|-2-------------|
B |-2-|-2-|-2--------|-2-------------|

(guitar 2 with slide)
Dd|---|---|----------|---------------|
Ab|---|---|-12/17\12-|-12/17\12------|
E |---|---|----------|----------13\\-|
B |---|---|----------|---------------|
Gb|---|---|----------|---------------|
B |---|---|----------|---------------|
            Before I show you...

Dd|------------------|
Ab|------------------|
E |------------------|
B |-2220222022202320-| x4
Gb|-2220222022202320-|
B |-2220222022202320-|
PM  ................
    Before I show you...


[Pre-chorus]
Dd|---------------------------|
Ab|---------------------------|
E |---------------------------|
B |-3---/10-2----3---/10-2----| x2
Gb|-3---/8--2----3---/8--2----|
B |-3-------2----3-------2----|
    See my life...


[Chorus]
Dd|---------------------------|-------------------------|
Ab|---------------------------|-------------------------|
E |---------------------------|-------------------------|
B |-5-2--0-2--5-2--0-2--0-5b6-|-5-2--0-2--5-2--0-2--0-3-| x4
Gb|-5-2--0-2--5-2--0-2--0-5b6-|-5-2--0-2--5-2--0-2--0-3-|
B |-5-2--0-2--5-2--0-2--0-5b6-|-5-2--0-2--5-2--0-2--0-3-|
                        Incredible!
Suggest correction
Give kudos to tab author, rate the tab!
1 2 3 4 5
comments
print report bad tab
guest
You may want to rate the tab now too:
select rating
Wanna post a correction for this tab? Suggest correction