Oops, an error
Loading. Please wait.
63,003 views 30 this week
18 commentsread comments
1 2 3 4 5
x 27
add to favorites
launch autoscroll
font size
0
reset
how to read this tab
guitar tuner
Autoscroll
slow
fast
+/-
esc
set tempo
stop
Author
[Intro]
e|---------------------|-----------------------|
B|-8---7-7h8h7---------|---8-8--7-7h8h7--------|
G|-9---7-------9p7-----|---9-9--7-------9p7----| (x3)
D|-9---7-----------9---|---9-9--7-----------9--|
A|-7---5---------------|---7----5--------------|
E|---------------------|-----------------------|

[Verse 1]
e|-----------------------------------------------------------------------|
B|-8------7--------8------7----------------------8--8--8---7--7h8h7------|
G|-9------7--------9------7-------0--0-0-0-0-0---9--9--9---7--------9p7--|
D|-9------7--------9------7-------0--0-0-0-0-0---9--9--9---7------------9|
A|-7------5--------7------5-------2--2-2-2-2-2---7--7--7---5-------------|
E|--------------------------------3--3-3-3-3-3---------------------------|
  Wish I was too dead to cry, My self-affliction  fades

e|----------------------------------------------------------------------|
B|-8----------7-------8-----7-------------------------7-7-7-7-7-7-------|
G|-9----------7-------9-----7-----0-0-0-0-0-0-0-0-----7-7-7-7-7-7-------|
D|-9----------7-------9-----7-----0-0-0-0-0-0-0-0-----7-7-7-7-7-7-------|
A|-7----------5-------7-----5-----2-2-2-2-2-2-2-2-----5-5-5-5-5-5-------|
E|--------------------------------3-3-3-3-3-3-3-3-----------------------|
  Stones to throw at my creator, Masochists   to     which I cater

[Chorus 1]
e|--------------------------------------------------------------------|
B|------------8-------7---------8-----------7--7-7-7-7-7-7------------|
G|------------9-------7---------9-----------7--7-7-7-7-7-7------------|
D|------------9-------7---------9-----------7--7-7-7-7-7-7------------|
A|------------7-------5---------7-----------5--5-5-5-5-5-5------------|
E|--------------------------------------------------------------------|
  You don't need to bother, I don't need to be

e|-----------------------------------------------------------------------|
B|-8--------------------7------1--1--1----1---1----7--7--7-----7---7---7-|
G|-9---------7----7-----7------0--0--0----0---0----7--7--7-----7---7---7-|
D|-9---------7----7-----7------2--2--2----2---2----7--7--7-----7---7---7-|
A|-7---------5----5-----5------3--3--3----3---3----5--5--5-----5---5---5-|
E|-----------------------------------------------------------------------|
  I'll keep slipping farther, But once  I hold on, I won't let go 'till it bleeds

[Instrumental]
e|---------------------|-----------------------|
B|-8---7-7h8h7---------|---8-8--7-7h8h7--------|
G|-9---7-------9p7-----|---9-9--7-------9p7----| (x3)
D|-9---7-----------9---|---9-9--7-----------9--|
A|-7---5---------------|---7----5--------------|
E|---------------------|-----------------------|

[Verse 2]
e|-----------------------------------------------------------------------|
B|-8------7--------8------7----------------------8--8--8---7--7h8h7------|
G|-9------7--------9------7-------0--0-0-0-0-0---9--9--9---7--------9p7--|
D|-9------7--------9------7-------0--0-0-0-0-0---9--9--9---7------------9|
A|-7------5--------7------5-------2--2-2-2-2-2---7--7--7---5-------------|
E|--------------------------------3--3-3-3-3-3---------------------------|
  Wish I was too dead to care, If indeed I cared at all

e|-----------------------------------------------------------------------|
B|-8----------7-------8-----7-------------------------7-7-7-7-7-7--------|
G|-9----------7-------9-----7-----0-0-0-0-0-0-0-0-----7-7-7-7-7-7--------|
D|-9----------7-------9-----7-----0-0-0-0-0-0-0-0-----7-7-7-7-7-7--------|
A|-7----------5-------7-----5-----2-2-2-2-2-2-2-2-----5-5-5-5-5-5--------|
E|--------------------------------3-3-3-3-3-3-3-3------------------------|
  Never had a voice to protest, So you fed me shit to digest

[Bridge]
e|----------------------------------------------------------------------|
B|-8---8---8--8-8-8-8-8-8-8---5---5---5--5-5-5-5-5-5-5------------------|
G|-9---9---9--9-9-9-9-9-9-9---5---5---5--5-5-5-5-5-5-5------------------|
D|-9---9---9--9-9-9-9-9-9-9---5---5---5--5-5-5-5-5-5-5------------------|
A|-7---7---7--7-7-7-7-7-7-7---3---3---3--3-3-3-3-3-3-3------------------|
E|----------------------------------------------------------------------|
       I wish I had a reason; My flaws are open season

e|----------------------------------------------------------------------|
B|-3---3---3--3-3-3-3-3-3-3---7---7---7--7--7--7--7--7--7--7------------|
G|-3---3---3--3-3-3-3-3-3-3---7---7---7--7--7--7--7--7--7--7------------|
D|-3---3---3--3-3-3-3-3-3-3---7---7---7--7--7--7--7--7--7--7------------|
A|-1---1---1--1-1-1-1-1-1-1---5---5---5--5--5--5--5--5--5--5------------|
E|----------------------------------------------------------------------|
   For this I gave up trying; One good turn deserves my dying

[Chorus 2]
e|-----------------------------------------------------------------------|
B|------------8-------7---------8-----------7--7-7-7-7-7-7---------------|
G|------------9-------7---------9-----------7--7-7-7-7-7-7---------------|
D|------------9-------7---------9-----------7--7-7-7-7-7-7---------------|
A|------------7-------5---------7-----------5--5-5-5-5-5-5---------------|
E|-----------------------------------------------------------------------|
  You don't need to bother, I don't need to be

e|-------------------------------------------------------------------------|
B|-8--------------------7------1--1--1----1---1----7--7--7-----7---7---7---|
G|-9---------7----7-----7------0--0--0----0---0----7--7--7-----7---7---7---|
D|-9---------7----7-----7------2--2--2----2---2----7--7--7-----7---7---7---|
A|-7---------5----5-----5------3--3--3----3---3----5--5--5-----5---5---5---|
E|-------------------------------------------------------------------------|
  I'll keep slipping farther, But once  I hold on, I won't let go 'till it bleeds

[Solo]
(1:58)
e|----------------------------------------------------------------------|
B|-8---10p8p7--8~------7h8~-----------------8-------------------------8-|
G|-9--------------7h9------------------9b---9------9------------------9-|
D|-9-------------------------------7h9------9--7h9---9----------7h9---9-|
A|-7--------------------------5h7~----------7--------------5h7~-------7-|
E|------------------------5h7--------------------------5h7--------------|

e|----------------------------------------------------------------------|
B|--10b--8h10p8p7---------------------8---------------------------------|
G|------------------------------------9---------------------------------|
D|-----------------------------7h9----9---------------------------------|
A|-----------------------5h7~---------7---------------------------------|
E|------------------5h7-------------------------------------------------|

[Instrumental]
e|---------------------|-----------------------|
B|-8---7-7h8h7---------|---8-8--7-7h8h7--------|
G|-9---7-------9p7-----|---9-9--7-------9p7----| (x3)
D|-9---7-----------9---|---9-9--7-----------9--|
A|-7---5---------------|---7----5--------------|
E|---------------------|-----------------------|

[Verse 2]
e|-----------------------------------------------------------------------|
B|-8------7--------8------7----------------------8--8--8---7--7h8h7------|
G|-9------7--------9------7-------0--0-0-0-0-0---9--9--9---7--------9p7--|
D|-9------7--------9------7-------0--0-0-0-0-0---9--9--9---7------------9|
A|-7------5--------7------5-------2--2-2-2-2-2---7--7--7---5-------------|
E|--------------------------------3--3-3-3-3-3---------------------------|
  Wish I died instead of lived, A zombie hides my face

e|--------------------------------------------------------------------|
B|-8----------7-------8-----7---------------------------7-7-7-7-7-7---|
G|-9----------7-------9-----7-------0-0-0-0-0-0-0-0-----7-7-7-7-7-7---|
D|-9----------7-------9-----7-------0-0-0-0-0-0-0-0-----7-7-7-7-7-7---|
A|-7----------5-------7-----5-------2-2-2-2-2-2-2-2-----5-5-5-5-5-5---|
E|----------------------------------3-3-3-3-3-3-3-3-------------------|
  Shell forgotton with it memories, Daries left with crypic entries

[Chorus 3]
e|-----------------------------------------------------------------------|
B|------------8-------7---------8-----------7--7-7-7-7-7-7---------------|
G|------------9-------7---------9-----------7--7-7-7-7-7-7---------------|
D|------------9-------7---------9-----------7--7-7-7-7-7-7---------------|
A|------------7-------5---------7-----------5--5-5-5-5-5-5---------------|
E|-----------------------------------------------------------------------|
  You don't need to bother, I don't need to be

e|-------------------------------------------------------------------------|
B|-8--------------------7------1--1--1----1---1----7--7--7-----7---7---7---|
G|-9---------7----7-----7------0--0--0----0---0----7--7--7-----7---7---7---|
D|-9---------7----7-----7------2--2--2----2---2----7--7--7-----7---7---7---|
A|-7---------5----5-----5------3--3--3----3---3----5--5--5-----5---5---5---|
E|-------------------------------------------------------------------------|
  I'll keep slipping farther, But once  I hold on, I won't let go 'till it bleeds

[Chorus 4]
e|-----------------------------------------------------------------------|
B|------------8-------7---------8-----------7--7-7-7-7-7-7---------------|
G|------------9-------7---------9-----------7--7-7-7-7-7-7---------------|
D|------------9-------7---------9-----------7--7-7-7-7-7-7---------------|
A|------------7-------5---------7-----------5--5-5-5-5-5-5---------------|
E|-----------------------------------------------------------------------|
  You don't need to bother, I don't need to be

e|-------------------------------------------------------------------------|
B|-8--------------------7--------------------------------------------------|
G|-9---------7----7-----7--------------------------------------------------|
D|-9---------7----7-----7--------------------------------------------------|
A|-7---------5----5-----5--------------------------------------------------|
E|-------------------------------------------------------------------------|
  I'll keep slipping farther, But once  I hold on, I won't let go 'till it bleeds

[Instrumental]
e|---------------------|-----------------------|
B|-8---7-7h8h7---------|---8-8--7-7h8h7--------|
G|-9---7-------9p7-----|---9-9--7-------9p7----| (x3)
D|-9---7-----------9---|---9-9--7-----------9--|
A|-7---5---------------|---7----5--------------|
E|---------------------|-----------------------|

[Outro]
e|-------|
B|-8-----|
G|-9-----|
D|-9-----|
A|-7-----|
E|-------|


************************************

| h  Hammer-on
| p  Pull-off
| ~  Vibrato
| b  Bend

************************************
Suggest correction
comments
print report bad tab
18 comments total. Showing first comments.
0 reply
puddler 40 Apr 18, 2004 08:00 PM

sweet job

0 reply
skatersic666 557 May 17, 2004 08:00 PM

Thx dude, it took me ages so it should be right, im not dissin the oher tab that is a kick ass job but it was wrong in places.

0 reply
Xx_banx 10 Jul 18, 2004 08:00 PM

nice tab
very well organized, i can tell u put in a decent amount of effort.
:m:

guest
You may want to rate the tab now too:
select rating
Wanna post a correction for this tab? Suggest correction