Oops, an error
Loading. Please wait.

Choose Tab

version 3
version 3

Whole song

Interactive

348 views 1 this week
no commentswrite comment
1 2 3 4 5
please rate
add to favorites
launch autoscroll
font size
0
reset
how to read this tab
guitar tuner
Tab Pro tools
  • play this tab
  • loop segment
  • change instrument
  • show fretboard
  • metronome
×
Best way to learn
"Choose"
Autoscroll
slow
fast
+/-
esc
set tempo
stop
Contributor
Difficulty
Tuning
intermediate
B F# B E G# C#
Stone Sour - Choose
Tabbed by ReinierK (please don't steal my work)

Legend:
h    - hammer on             T   - tap
p    - pull off              TP  - tremolo picking
b    - bend string up        PM  - palm muting
r    - release bend          \n/ - tremolo arm dip; n = amount to dip
/    - slide up              \n  - tremolo arm down
\    - slide down            n/  - tremolo arm up
v    - vibrato               /n\ - tremolo arm inverted dip
t    - right hand tap        =   - hold bend 
s    - legato slide          <>  - volume swell louder/softer
S    - shift slide           x   - muted slash
*    - natural harmonic      o   - single note slash
[n]  - artificial harmonic   ·/. - pick slide
n(n) - tapped harmonic
tr   - trill

Tuning:
Db - 6th string (thin)
Ab - 5th string
E  - 4th string
B  - 3rd string
Gb - 2nd string
B  - 1st string (thick)



[Intro]
Dd|------------------------|------------------------|
Ab|------------------------|------------------------|
E |------------------------|------------------------|
B |------------------------|------------------------|
Gb|-5-----6----------------|-5-----6----------------|
B |---8-5---0000-2320-2320-|---8-5---0000-2320-2320-|
PM          .... .... ....   . . . . .... .... ....
                                          Hear me!

Dd|---------------------------|
Ab|---------------------------|
E |---------------------------|
B |---------------------------| x2
Gb|-6p0----------6--0h6-0h6p0-|
B |-6p0-00000000-6--0h6-0h6p0-|
PM      ........


Dd|---------------------------|--------------------|
Ab|---------------------------|--------------------|
E |---------------------------|--------------------|
B |---------------------------|--------------------|
Gb|-6p0----------6--0h6-0h6p0-|-6p0-00000000-6b7r6-|
B |-6p0-00000000-6--0h6-0h6p0-|-6p0-00000000-6b7r6-|
PM      ........                    ........


[Verse 1]
Dd|-------|
Ab|-------|
E |-------|
B |-------|
Gb|-6b7r6-|
B |-6b7r6-|
    life...

Dd|---------------------------|
Ab|---------------------------|
E |---------------------------|
B |---------------------------| x2
Gb|-6p0----------6--0h6-0h6p0-|
B |-6p0-00000000-6--0h6-0h6p0-|
PM      ........
    But somewhere in the...

Dd|---------------------------|--------------------|
Ab|---------------------------|--------------------|
E |---------------------------|--------------------|
B |---------------------------|--------------------|
Gb|-6p0----------6--0h6-0h6p0-|-6p0-00000000-6b7r6-|
B |-6p0-00000000-6--0h6-0h6p0-|-6p0-00000000-6b7r6-|
PM      ........                    ........
    So my tribunal brings...


[Pre-chorus]
Dd|---------------------|
Ab|---------------------|
E |-7---------7---------|
B |-7---6-6---7---6-6---| x2
Gb|-5---6-6---5---6-6---|
B |-----6-6-------6-6---|
    All... You want is...

Dd|-------------------|-------------------|
Ab|-------------------|-------------------|
E |-------------------|-------------------|
B |-2-2-0h2-2-3-3-333-|-2-2-0h2-2-5---7-8-|
Gb|-2-2-0h2-2-3-3-333-|-2-2-0h2-2-3---5-6-|
B |-2-2-0h2-2-3-3-333-|-2-2-0h2-2---------|
                  ...
    I can't betray...


[Interlude]
Dd|---------------------------|
Ab|---------------------------|
E |---------------------------|
B |---------------------------| x2
Gb|-6p0----------6--0h6-0h6p0-|
B |-6p0-00000000-6--0h6-0h6p0-|
PM      ........
    Self...

Dd|---------------------------|--------------------|
Ab|---------------------------|--------------------|
E |---------------------------|--------------------|
B |---------------------------|--------------------|
Gb|-6p0----------6--0h6-0h6p0-|-6p0-00000000-6b7r6-|
B |-6p0-00000000-6--0h6-0h6p0-|-6p0-00000000-6b7r6-|
PM      ........                    ........


[Verse 2] (repeat twice)
Dd|---------------------------|
Ab|---------------------------|
E |---------------------------|
B |---------------------------| x2
Gb|-6p0----------6--0h6-0h6p0-|
B |-6p0-00000000-6--0h6-0h6p0-|
PM      ........
    I stand before you...

Dd|---------------------------|--------------------|
Ab|---------------------------|--------------------|
E |---------------------------|--------------------|
B |---------------------------|--------------------|
Gb|-6p0----------6--0h6-0h6p0-|-6p0-00000000-6b7r6-|
B |-6p0-00000000-6--0h6-0h6p0-|-6p0-00000000-6b7r6-|
PM      ........                    ........
    I couldn't focus so...


[Pre-chorus]
Dd|---------------------|
Ab|---------------------|
E |-7---------7---------|
B |-7---6-6---7---6-6---| x2
Gb|-5---6-6---5---6-6---|
B |-----6-6-------6-6---|
    All... You want is...

Dd|-------------------|-------------------|
Ab|-------------------|-------------------|
E |-------------------|-------------------|
B |-2-2-0h2-2-3-3-333-|-2-2-0h2-2-3---5-6-|
Gb|-2-2-0h2-2-3-3-333-|-2-2-0h2-2-3---5-6-|
B |-2-2-0h2-2-3-3-333-|-2-2-0h2-2-3---5-6-|
                  ...
    I can't betray...

Dd|-------------------|
Ab|-----------------0-|
E |-----------------0-|
B |-2/3\2-232023202-0-| x3
Gb|-2/3\2-232023202---|
B |-2/3\2-232023202---|
PM        .........
    Self...

Dd|-----------------|
Ab|-----------------|
E |-----------------|
B |-2/3\2-232023202-|
Gb|-2/3\2-232023202-|
B |-2/3\2-232023202-|
PM        .........
    Self...


[Interlude] (repeat twice)
Dd|---------------------------|
Ab|---------------------------|
E |---------------------------|
B |---------------------------| x2
Gb|-6p0----------6--0h6-0h6p0-|
B |-6p0-00000000-6--0h6-0h6p0-|
PM      ........
    Self...

Dd|---------------------------|--------------------|
Ab|---------------------------|--------------------|
E |---------------------------|--------------------|
B |---------------------------|--------------------|
Gb|-6p0----------6--0h6-0h6p0-|-6p0-00000000-6b7r6-|
B |-6p0-00000000-6--0h6-0h6p0-|-6p0-00000000-6b7r6-|
PM      ........                    ........


[Verse 3]
Dd|-------|
Ab|-------|
E |-------|
B |-------|
Gb|-6b7r6-|
B |-6b7r6-|
    lies...

Dd|---------------------------|
Ab|---------------------------|
E |---------------------------|
B |---------------------------| x2
Gb|-6p0----------6--0h6-0h6p0-|
B |-6p0-00000000-6--0h6-0h6p0-|
PM      ........
    Behind the door...

Dd|---------------------------|--------------------|
Ab|---------------------------|--------------------|
E |---------------------------|--------------------|
B |---------------------------|--------------------|
Gb|-6p0----------6--0h6-0h6p0-|-6p0-00000000-6b7r6-|
B |-6p0-00000000-6--0h6-0h6p0-|-6p0-00000000-6b7r6-|
PM      ........                    ........
    You can survive...


[Pre-chorus]
Dd|---------------------|
Ab|---------------------|
E |-7---------7---------|
B |-7---6-6---7---6-6---| x2
Gb|-5---6-6---5---6-6---|
B |-----6-6-------6-6---|
    All... You want is...

Dd|-------------------|-------------------|
Ab|-------------------|-------------------|
E |-------------------|-------------------|
B |-2-2-0h2-2-3-3-333-|-2-2-0h2-2-3---5-6-|
Gb|-2-2-0h2-2-3-3-333-|-2-2-0h2-2-3---5-6-|
B |-2-2-0h2-2-3-3-333-|-2-2-0h2-2-3---5-6-|
                  ...
    I can't betray...

Dd|-------------------|
Ab|-----------------0-|
E |-----------------0-|
B |-2/3\2-232023202-0-| x3
Gb|-2/3\2-232023202---|
B |-2/3\2-232023202---|
PM        .........
    Self...


Dd|-----------------|
Ab|-----------------|
E |-----------------|
B |-2/3\2-232023202-|
Gb|-2/3\2-232023202-|
B |-2/3\2-232023202-|
PM        .........
    Self...


[Outro] (repeat twice)
Dd|---------------------------|
Ab|---------------------------|
E |---------------------------|
B |---------------------------| x2
Gb|-6p0----------6--0h6-0h6p0-|
B |-6p0-00000000-6--0h6-0h6p0-|
PM      ........

Dd|---------------------------|--------------------|
Ab|---------------------------|--------------------|
E |---------------------------|--------------------|
B |---------------------------|--------------------|
Gb|-6p0----------6--0h6-0h6p0-|-6p0-00000000-6b7r6-|
B |-6p0-00000000-6--0h6-0h6p0-|-6p0-00000000-6b7r6-|
PM      ........                    ........
                                             Choose!
comments
We did not receive enough feedback on this tab! Please rate:
print report bad tab
1 2 3 4 5
I want to post or [tab]
guest
You may want to rate the tab now too:
select rating
Please do not post tabs as comments. Select "correction" instead!