Oops, an error
Loading. Please wait.
We have an official Fabuless tab made by UG professional guitarists. Check out the tab »
×

Fabuless tab

version 1
version 1

Whole song

  • I have made it easier, and i haven't found any other tab for it.

Interactive

580 views 75 this week
1 commentread comment
1 2 3 4 5
3 more votes to show rating
add to favorites
×
Save as Personal and add changes to this tab that will be seen only by you. Learn more ›
×
You can save this tab as Personal to edit and correct it or add notes. All changes will be seen only by you. Learn more »
launch autoscroll
font size
0
reset
how to read this tab
guitar tuner
edit
Autoscroll
slow
fast
+/-
esc
set tempo
stop
About this tab version
I have made it easier, and i haven't found any other tab for it. Was this info helpful? Yes No
HERE IS A YT VIDEO: https://www.youtube.com/watch?v=JgY6pnh3ivE

Eb|-----------------------------------------------------------------------------|
Bb|-----------------------------------------------------------------------------|
Gb|-----------------------------------------------------------------------------|
Db|-----------------------------------------------------------------------------|
Ab|-----------------------------------------------------------------------------|
Db|-----10---0---10---0---0---10---0---0--------11---0---11---0---0---11---0---0|

Eb|-----------------------------------------------------------------------------|
Bb|-----------------------------------------------------------------------------|
Gb|-----------------------------------------------------------------------------|
Db|-----------------------------------------------------------------------------|
Ab|-----------------------------------------------------------------------------|
Db|-----5---0---5---0---0---5---0---0--------6---0---6---0---0---6---0---0------|

Eb|-----------------------------------------------------------------------------|
Bb|-----------------------------------------------------------------------------|
Gb|-----------------------------------------------------------------------------|
Db|-----------------------------------------------------------------------------|
Ab|-----------------------------------------------------------------------------|
Db|-----10---0---10---0---0---10---0---0--------11---0---11---0---0---11---0---0|

Eb|-----------------------------------------------------------------------------|
Bb|-----------------------------------------------------------------------------|
Gb|-----------------------------------------------------------------------------|
Db|---------------------------------------------5\--------------------6---------|
Ab|---------------------------------------------5\--------------------6---------|
Db|-----13---0---13---0---0---13---0---0--------5\--------------------6---------|

Eb|-----------------------------------------------------------------------------|
Bb|-----------------------------------------------------------------------------|
Gb|-----------------------------------------------------------------------------|
Db|-----------------------------------------------------------------------------|
Ab|-----------------------------------------------------------------------------|
Db|-----10---0---10---0---0---10---0---0--------11---0---11---0---0---11---0---0|

Eb|-----------------------------------------------------------------------------|
Bb|-----------------------------------------------------------------------------|
Gb|-----------------------------------------------------------------------------|
Db|-----------------------------------------------------------------------------|
Ab|-----------------------------------------------------------------------------|
Db|-----5---0---5---0---0---5---0---0--------6---0---6---0---0---6---0---0------|

Eb|-----------------------------------------------------------------------------|
Bb|-----------------------------------------------------------------------------|
Gb|-----------------------------------------------------------------------------|
Db|-----------------------------------------------------------------------------|
Ab|-----------------------------------------------------------------------------|
Db|-----10---0---10---0---0---10---0---0--------11---0---11---0---0---11---0---0|

Eb|-----------------------------------------------------------------------------|
Bb|-----------------------------------------------------------------------------|
Gb|-----------------------------------------------------------------------------|
Db|---------------------------------------------5----5---5---5----6----6---6---6|
Ab|---------------------------------------------5----5---5---5----6----6---6---6|
Db|-----13---0---13---0---0---13---0---0--------5----5---5---5----6----6---6---6|

Eb|-----------------------------------------------------------------------------|
Bb|-----------------------------------------------------------------------------|
Gb|-----------------------------------------------------------------------------|
Db|-----0-----------------------------------------------------------------------|
Ab|-----0-----------------------------------------------------------------------|
Db|-----0-----------------------------------------------------------------------|

Eb|-----17---------------------------------17-----------------------------------|
Bb|------------18--------------------------------18-----------------------------|
Gb|--------------------21------------------------------21-----------------------|
Db|------------------------------------------------------------22---------------|
Ab|-----------------------------------------------------------------------------|
Db|-----------------------------------------------------------------------------|

Eb|-----------------------------------------------------------------------------|
Bb|-----------------------------------------------------------------------------|
Gb|-----------------------------------------------------------------------------|
Db|----7--7--7--7--7--7--6--6--6--6--6--6--6--6--5--5--5--5--5--5--3--3--3--3--3|
Ab|-----------------------------------------------------------------------------|
Db|-----------------------------------------------------------------------------|

                  ) *2
Eb|-----------------------------------------------------------------------------|
Bb|-----------------------------------------------------------------------------|
Gb|-----------------------------------------------------------------------------|
Db|-3--1--1--1--1---------------------------------------------------------------|
Ab|-----------------------------------------------------------------------------|
Db|-----------------------------------------------------------------------------|

Eb|-----------------------------------------------------------------------------|
Bb|-----------------------------------------------------------------------------|
Gb|-----------------------------------------------------------------------------|
Db|-----------------------------------------------------------------------------|
Ab|-----------------------------------------------------------------------------|
Db|-----10---0---10---0---0---10---0---0--------11---0---11---0---0---11---0---0|

Eb|-----------------------------------------------------------------------------|
Bb|-----------------------------------------------------------------------------|
Gb|-----------------------------------------------------------------------------|
Db|-----------------------------------------------------------------------------|
Ab|-----------------------------------------------------------------------------|
Db|-----5---0---5---0---0---5---0---0--------6---0---6---0---0---6---0---0------|

Eb|-----------------------------------------------------------------------------|
Bb|-----------------------------------------------------------------------------|
Gb|-----------------------------------------------------------------------------|
Db|-----------------------------------------------------------------------------|
Ab|-----------------------------------------------------------------------------|
Db|-----10---0---10---0---0---10---0---0--------11---0---11---0---0---11---0---0|

Eb|-----------------------------------------------------------------------------|
Bb|-----------------------------------------------------------------------------|
Gb|-----------------------------------------------------------------------------|
Db|---------------------------------------------5----5---5---5----6----6---6---6|
Ab|---------------------------------------------5----5---5---5----6----6---6---6|
Db|-----13---0---13---0---0---13---0---0--------5----5---5---5----6----6---6---6|

Eb|-----------------------------------------------------------------------------|
Bb|-----------------------------------------------------------------------------|
Gb|-----------------------------------------------------------------------------|
Db|-12--12--12--12--12--12--8-8-8-8-8-8-8-8-8-8-----3/5-5-5-5-5-5-5-5-5-5-5-5-5-|
Ab|-12--12--12--12--12--12--8-8-8-8-8-8-8-8-8-8-----3/5-5-5-5-5-5-7-7-7-7-7p5-5-|
Db|-12--12--12--12--12--12--8-8-8-8-8-8-8-8-8-8-----3/5-5-5-5-5-5-5-5-5-5-5-5-5-|

Eb|-------------------------------------------------------------------------------|
Bb|-------------------------------------------------------------------------------|
Gb|-------------------------------------------------------------------------------|
Db|-12--12--12--12--12--12--8-8-8-8-8-8-8-8-8-8----7-----7-----7-----7-----7-----7|
Ab|-12--12--12--12--12--12--8-8-8-8-8-8-8-8-8-8----7-----7-----7-----7-----7-----7|
Db|-12--12--12--12--12--12--8-8-8-8-8-8-8-8-8-8----7-7-7-7-7-7-7-7-7-7-7-7-7-7-7-7|

  (                                                                            )x2
Eb|-----------------------------------------------------------------------------|
Bb|-----------------------------------------------------------------------------|
Gb|-----------------------------------------------------------------------------|
Db|-----------------------------------------------------------------------------|
Ab|-----------------------------------------------------------------------------|
Db|-----3---3---3---3---6---6---0---0--------3---3---3---3---6---6---0---7------|

Eb|-----------------------------------------------------------------------------|
Bb|-----------------------------------------------------------------------------|
Gb|-----------------------------------------------------------------------------|
Db|-----------------------------------------------------------------------------|
Ab|-----------------------------------------------------------------------------|
Db|-----10---0---10---0---0---10---0---0--------11---0---11---0---0---11---0---0|

Eb|-----------------------------------------------------------------------------|
Bb|-----------------------------------------------------------------------------|
Gb|-----------------------------------------------------------------------------|
Db|-----------------------------------------------------------------------------|
Ab|-----------------------------------------------------------------------------|
Db|-----5---0---5---0---0---5---0---0--------6---0---6---0---0---6---0---0------|

Eb|-----------------------------------------------------------------------------|
Bb|-----------------------------------------------------------------------------|
Gb|-----------------------------------------------------------------------------|
Db|-----------------------------------------------------------------------------|
Ab|-----------------------------------------------------------------------------|
Db|-----10---0---10---0---0---10---0---0--------11---0---11---0---0---11---0---0|

Eb|-----------------------------------------------------------------------------|
Bb|-----------------------------------------------------------------------------|
Gb|-----------------------------------------------------------------------------|
Db|---------------------------------------------5----5---5---5----6----6---6---6|
Ab|---------------------------------------------5----5---5---5----6----6---6---6|
Db|-----13---0---13---0---0---13---0---0--------5----5---5---5----6----6---6---6|

Eb|-----------------------------------------------------------------------------|
Bb|-----------------------------------------------------------------------------|
Gb|-----------------------------------------------------------------------------|
Db|-----0-----------------------------------------------------------------------|
Ab|-----0-----------------------------------------------------------------------|
Db|-----0-----------------------------------------------------------------------|

Eb|-----17---------------------------------17-----------------------------------|
Bb|------------18--------------------------------18-----------------------------|
Gb|--------------------21------------------------------21-----------------------|
Db|------------------------------------------------------------22---------------|
Ab|-----------------------------------------------------------------------------|
Db|-----------------------------------------------------------------------------|

   (
Eb|-----------------------------------------------------------------------------|
Bb|-----------------------------------------------------------------------------|
Gb|-----------------------------------------------------------------------------|
Db|----7--7--7--7--7--7--6--6--6--6--6--6--6--6--5--5--5--5--5--5--3--3--3--3--3|
Ab|-----------------------------------------------------------------------------|
Db|-----------------------------------------------------------------------------|

                  ) x2
Eb|-----------------------------------------------------------------------------|
Bb|-----------------------------------------------------------------------------|
Gb|-----------------------------------------------------------------------------|
Db|-3--1--1--1--1---------------------------------------------------------------|
Ab|-----------------------------------------------------------------------------|
Db|-----------------------------------------------------------------------------|

Eb|-----------------------------------------------------------------------------|
Bb|-----------------------------------------------------------------------------|
Gb|-----------------------------------------------------------------------------|
Db|-----------------------------------------------------------------------------|
Ab|-----------------------------------------------------------------------------|
Db|-----10---0---10---0---0---10---0---0--------11---0---11---0---0---11---0---0|

Eb|-----------------------------------------------------------------------------|
Bb|-----------------------------------------------------------------------------|
Gb|-----------------------------------------------------------------------------|
Db|-----------------------------------------------------------------------------|
Ab|-----------------------------------------------------------------------------|
Db|-----5---0---5---0---0---5---0---0--------6---0---6---0---0---6---0---0------|

Eb|-----------------------------------------------------------------------------|
Bb|-----------------------------------------------------------------------------|
Gb|-----------------------------------------------------------------------------|
Db|-----------------------------------------------------------------------------|
Ab|-----------------------------------------------------------------------------|
Db|-----10---0---10---0---0---10---0---0--------11---0---11---0---0---11---0---0|

Eb|-----------------------------------------------------------------------------|
Bb|-----------------------------------------------------------------------------|
Gb|-----------------------------------------------------------------------------|
Db|---------------------------------------------5----5---5---5----6----6---6---6|
Ab|---------------------------------------------5----5---5---5----6----6---6---6|
Db|-----13---0---13---0---0---13---0---0--------5----5---5---5----6----6---6---6|

Eb|-----------------------------------------------------------------------------|
Bb|-----------------------------------------------------------------------------|
Gb|-----------------------------------------------------------------------------|
Db|-12--12--12--12--12--12--8-8-8-8-8-8-8-8-8-8-----3/5-5-5-5-5-5-5-5-5-5-5-5-5-|
Ab|-12--12--12--12--12--12--8-8-8-8-8-8-8-8-8-8-----3/5-5-5-5-5-5-7-7-7-7-7p5-5-|
Db|-12--12--12--12--12--12--8-8-8-8-8-8-8-8-8-8-----3/5-5-5-5-5-5-5-5-5-5-5-5-5-|

Eb|-------------------------------------------------------------------------------|
Bb|-------------------------------------------------------------------------------|
Gb|-------------------------------------------------------------------------------|
Db|-12--12--12--12--12--12--8-8-8-8-8-8-8-8-8-8----7-----7-----7-----7-----7-----7|
Ab|-12--12--12--12--12--12--8-8-8-8-8-8-8-8-8-8----7-----7-----7-----7-----7-----7|
Db|-12--12--12--12--12--12--8-8-8-8-8-8-8-8-8-8----7-7-7-7-7-7-7-7-7-7-7-7-7-7-7-7|

  (                                                                            )x2
Eb|-----------------------------------------------------------------------------|
Bb|-----------------------------------------------------------------------------|
Gb|-----------------------------------------------------------------------------|
Db|-----------------------------------------------------------------------------|
Ab|-----------------------------------------------------------------------------|
Db|-----3---3---3---3---6---6---0---0--------3---3---3---3---6---6---0---7------|

   (
Eb|-----------------------------------------------------------------------------|
Bb|-----------------------------------------------------------------------------|
Gb|-----------------------------------------------------------------------------|
Db|-----------------------------------------------------------------------------|
Ab|----12--12--12--12--12--12--11--11--11--11--11--11--11--11--11--11--10--10---|
Db|----12--12--12--12--12--12--11--11--11--11--11--11--11--11--11--11--10--10---|

                                                )x2
Eb|-----------------------------------------------------------------------------|
Bb|-----------------------------------------------------------------------------|
Gb|-----------------------------------------------------------------------------|
Db|-----------------------------------------------------------------------------|
Ab|10--10--10--10--8--8--8--8--8--8--6--6--6--6---------------------------------|
Db|10--10--10--10--8--8--8--8--8--8--6--6--6--6---------------------------------|

Eb|------------------------------------13-h15p13p12-----------------------------|
Bb|--17br--t22--10/11\10--t18/20--17-----------------15p13p11h13h15--11h13h15-11|
Gb|-----------------------------------------------------------------------------|
Db|-----------------------------------------------------------------------------|
Ab|-----------------------------------------------------------------------------|
Db|-----------------------------------------------------------------------------|

Eb|-----------------------------------------------------------------------------|
Bb|------------10h11h13-10------------------------------------------------------|
Gb|--14-12-10--------------12--10--9---23--9b-----------------------------------|
Db|-----------------------------------------------------------------------------|
Ab|-----------------------------------------------------------------------------|
Db|-----------------------------------------------------------------------------|

Eb|-----------------------------------------------------------------------------|
Bb|-10---------------12-10--------------12-10---13/15-\13--/15---t19-p13b15r-p10|
Gb|-10---------------12-10--------------12-10-----------------------------------|
Db|----12--10--------------12-10------------------------------------------------|
Ab|-----------12-10--------------12-10------------------------------------------|
Db|-----------------------------------------------------------------------------|

Eb|-----------------------------------------------------------------------------|
Bb|-t13p10t13p10t13p10-(b-t13p10t13p10t13p10t13p10)-----------------------------|
Gb|-----------------------------------------------------------------------------|
Db|-----------------------------------------------------------------------------|
Ab|-----------------------------------------------------------------------------|
Db|-----------------------------------------------------------------------------|

   (
Eb|-----------------------------------------------------------------------------|
Bb|-----------------------------------------------------------------------------|
Gb|-----------------------------------------------------------------------------|
Db|-12--12--12--12--12--12--8-8-8-8-8-8-8-8-8-8-----3/5-5-5-5-5-5-5-5-5-5-5-5-5-|
Ab|-12--12--12--12--12--12--8-8-8-8-8-8-8-8-8-8-----3/5-5-5-5-5-5-7-7-7-7-7p5-5-|
Db|-12--12--12--12--12--12--8-8-8-8-8-8-8-8-8-8-----3/5-5-5-5-5-5-5-5-5-5-5-5-5-|

                                                                                   )x2
Eb|-------------------------------------------------------------------------------|
Bb|-------------------------------------------------------------------------------|
Gb|-------------------------------------------------------------------------------|
Db|-12--12--12--12--12--12--8-8-8-8-8-8-8-8-8-8----7-----7-----7-----7-----7-----7|
Ab|-12--12--12--12--12--12--8-8-8-8-8-8-8-8-8-8----7-----7-----7-----7-----7-----7|
Db|-12--12--12--12--12--12--8-8-8-8-8-8-8-8-8-8----7-7-7-7-7-7-7-7-7-7-7-7-7-7-7-7|

  (                                                                            )x3
Eb|-----------------------------------------------------------------------------|
Bb|-----------------------------------------------------------------------------|
Gb|-----------------------------------------------------------------------------|
Db|-----------------------------------------------------------------------------|
Ab|-----------------------------------------------------------------------------|
Db|-----3---3---3---3---6---6---0---0--------3---3---3---3---6---6---0---7------|

Eb|-----------------------------------------------------------------------------|
Bb|-----------------------------------------------------------------------------|
Gb|-----------------------------------------------------------------------------|
Db|-----------------------------------------------------------------7-----------|
Ab|-----------------------------------------------------------------7-----------|
Db|-----3---3---3---3---6---6---0---0--------3---3---3---3---6---6--7-----------|



************************************

| b   Bend
| \   Slide down
| /   Slide up
| p   Pull-off
| h   Hammer-on
| t   Tapping
| br  Bend release
| r   Release
| (b  
| )   

************************************
Suggest correction
Creating personal tab
Creating personal tab
You can edit any tab online and save it as your Personal.

You can edit, replace or remove any tab part or add personal notes – all changes will be seen only by you.

Personal tabs can be accessed anytime from any device, even offline.
Learn more »
Give kudos to tab author, rate the tab!
1 2 3 4 5
comments
print report bad tab
1 comment total.
0 reply
aidanmuller2005 52 Jul 30, 2017 10:18 AM

Comment if you like

guest
You may want to rate the tab now too:
select rating
Wanna post a correction for this tab? Suggest correction