Oops, an error
Loading. Please wait.

Get Inside Tab

version 6
version 6
1,147 views 1 this week
no commentswrite comment
1 2 3 4 5
please rate
add to favorites
launch autoscroll
font size
0
reset
how to read this tab
guitar tuner
Autoscroll
slow
fast
+/-
esc
set tempo
stop
Help us to improve Ultimate-Guitar.com Take our survey!
×
Author
#----------------------------------PLEASE NOTE---------------------------------#
#This file is the author's own work and represents their interpretation of the #
#song. You may only use this file for private study, scholarship, or research. #
#------------------------------------------------------------------------------##

                                   GET INSIDE
                            As recorded by Stone Sour
                        (From the 2002 Album STONE SOUR)

Words and Music by Stone Sour


Gtr I (B F# B E G# C#) - 'Jim Root'
Gtr II (B F# B E G# C#) - 'Josh Rand'
Gtr III (B F# B E G# C#) - 'Josh Rand (Lead)'

   Intro
    Moderately Fast Q=154
    N.C.
   4/4
    Gtrs I, II
    S S S S S S S S S S S S S S S S   S S S S S S S S S S S S E E
||----------------------------------|------------------------------||
||o---------------------------------|-----------------------------o||
||----------------------------------|------------------------------||
||----------------------------------|------------------------------||
||o---------------------------------|-----------------------------o||
||--3-2-1-0-0-0-3-2-1-0-0-0-1-0-1-0-|-3-2-1-0-0-0-3-2-1-0-0-0-3-6--||


                                                            F5Ab5    F5E5
                                                                 3/4
  S S S S S S S S S S S S S S S S   S S S S S S S S S S S S E E   Q  E E Q
|---------------------------------|-----------------------------|----------||
|---------------------------------|-----------------------------|----------||
|---------------------------------|-----------------------------|----------||
|---------------------------------|-----------------------------|----------||
|---------------------------------|-------------------------3-6-|----3-2---||
|-3-2-1-0-0-0-3-2-1-0-0-0-1-0-1-0-|-3-2-1-0-0-0-2-1-0-0-0-0-3-6-|----3-2---||


    D5       Ab5D5        EbD5EbD5           Ab5D5
   4/4
       PM--|                           PM--|                    ~~~
    Q  E E E Q  E   Q  Q  E E E E   Q  E E E Q  E   Q  E E E E  Q
||----------------|---------------|---------------|----------------|
||o---------------|---------------|---------------|----------------|
||----------------|---------------|---------------|----------------|
||----------------|---------------|---------------|----------------|
||o-0--0-0-0-6--0-|-0--0--1p0-1p0-|-0--0-0-0-6--0-|-0--0-0---------|
||--0--0-0-0-6--0-|-0--0--1p0-1p0-|-0--0-0-0-6--0-|-0--0-0-3h6-[2]-|


  D5       Ab5D5        EbD5EbD5           Ab5D5
     PM--|                           PM--|                    ~~~
  Q  E E E Q  E   Q  Q  E E E E   Q  E E E Q  E   Q  E E E E  Q
|---------------|---------------|---------------|-----------------||
|---------------|---------------|---------------|-----------------||
|---------------|---------------|---------------|-----------------||
|---------------|---------------|---------------|-----------------||
|-0--0-0-0-6--0-|-0--0--1p0-1p0-|-0--0-0-0-6--0-|-0--0-0----------||
|-0--0-0-0-6--0-|-0--0--1p0-1p0-|-0--0-0-0-6--0-|-0--0-0-3h6-[2]--||


 Verse 1,2, & 3
  $
  D5                           Eb5F#5  D5
  PM-------------------------|         PM-----------------------------|
  E E E S S E E Q    E E E S S Q  Q    E E E S S E E Q    E E E S S E E E E
|------------------|-----------------|------------------|-------------------|
|------------------|-----------------|------------------|-------------------|
|------------------|-----------------|------------------|-------------------|
|------------------|-----------------|------------------|-------------------|
|-0-0---0-0-0-0----|-0-0---0-0-1--4--|-0-0---0-0-0-0----|-0-0---0-0-----6-5-|
|-0-0---0-0-0-0----|-0-0---0-0-1--4--|-0-0---0-0-0-0----|-0-0---0-0-6-5-----|


  D5                           Eb5F#5  D5
  PM-------------------------|         PM-----------------------------|
  E E E S S E E Q    E E E S S Q  Q    E E E S S E E Q    E E E S S E E E E
|------------------|-----------------|------------------|-------------------|
|------------------|-----------------|------------------|-------------------|
|------------------|-----------------|------------------|-------------------|
|------------------|-----------------|------------------|-------------------|
|-0-0---0-0-0-0----|-0-0---0-0-1--4--|-0-0---0-0-0-0----|-0-0---0-0-----6-5-|
|-0-0---0-0-0-0----|-0-0---0-0-1--4--|-0-0---0-0-0-0----|-0-0---0-0-6-5-----|


 Pre-Chorus (Half-time Feel)
  Eb5  D5         Eb5  D5         Eb5  D5
  Gtr I
                                                       PM|
  Q.   E +H       Q.   E +H       Q.   E +H       E E  E E E Q.
|---------------|---------------|---------------|-----------------|
|---------------|---------------|---------------|-----------------|
|-8----7-(7)----|-8----7-(7)----|-8----7-(7)----|---9------7------|
|---------------|---------------|---------------|-7---10-9---9----|
|---------------|---------------|---------------|-----------------|
|---------------|---------------|---------------|-----------------|
|
| Gtr II
| Q.   E +H       Q.   E +H       Q.   E +H       E E  E E E Q.
|---------------|---------------|---------------|-----------------|
|---------------|---------------|---------------|-----------------|
|---------------|---------------|---------------|-----------------|
|-8----7-(7)----|-8----7-(7)----|-8----7-(7)----|---7------5------|
|-6----5-(5)----|-6----5-(5)----|-6----5-(5)----|-5----8-7---7----|
|---------------|---------------|---------------|-----------------|


  Eb5  D5         Eb5  D5         Eb5  D5
  Q.   E +H       Q.   E +H       Q.   E +H       E E E E E Q.
|---------------|---------------|---------------|----------------||
|---------------|---------------|---------------|----------------||
|-8----7-(7)----|-8----7-(7)----|-8----7-(7)----|----------------||
|---------------|---------------|---------------|---------6-5----||
|---------------|---------------|---------------|-6-5------------||
|---------------|---------------|---------------|-----6-5--------||
|
| Q.   E +H       Q.   E +H       Q.   E +H       E E E E E Q.
|---------------|---------------|---------------|----------------||
|---------------|---------------|---------------|----------------||
|---------------|---------------|---------------|----------------||
|-8----7-(7)----|-8----7-(7)----|-8----7-(7)----|-6-5------------||
|-6----5-(5)----|-6----5-(5)----|-6----5-(5)----|---------6-5----||
|---------------|---------------|---------------|-----6-5--------||


 Chorus
  F5G5 D5     F5D5  F5G5 D5AbG5F5D5  F5G5 D5     F5D5
  Gtrs I, II
  E Q  E +Q   E E   E Q  E E E E E   E Q  E +Q   E E
|-----------------|----------------|-----------------|
|-----------------|----------------|-----------------|
|-----------------|----------------|-----------------|
|-----------------|----------------|-----------------|
|-3-5--0-(0)--3-0-|-3-5--0-6s5-3-0-|-3-5--0-(0)--3-0-|
|-3-5--0-(0)--3-0-|-3-5--0-6s5-3-0-|-3-5--0-(0)--3-0-|


                                           To Coda
  F5G5 D5AbG5F5D5  F5G5 D5     F5D5  F5G5 D5AbG5F5D5
  E Q  E E E E E   E Q  E +Q   E E   E Q  E E E E E
|----------------|-----------------|----------------|
|----------------|-----------------|----------------|
|----------------|-----------------|----------------|
|----------------|-----------------|----------------|
|-3-5--0-6s5-3-0-|-3-5--0-(0)--3-0-|-3-5--0-6s5-3-0-|
|-3-5--0-6s5-3-0-|-3-5--0-(0)--3-0-|-3-5--0-6s5-3-0-|


                                      Bridge (Half-Time Feel)
  F5G5 D5     F5D5  F5G5 D5AbG5F5      N.C.
                                       PM------------|
  E Q  E +Q   E E   E Q  E E E E E     E E E E E E E E
|-----------------|-----------------||-----------------|
|-----------------|----------------o||-----------------|
|-----------------|-----------------||-----------------|
|-----------------|-----------------||-----------------|
|-3-5--0-(0)--3-0-|-3-5--0-6-5-3---o||-----------------|
|-3-5--0-(0)--3-0-|-3-5--0-6-5-3----||-5-6-5-0-1-2-3-0-|


                                                        G5AbG5D5EbE5F5D5
  PM------------------------------------------------|
  E E E E E E E E   E E E E E E E E   E E E E E E E E   E E E E E E E E
|-----------------|-----------------|-----------------|-----------------|
|-----------------|-----------------|-----------------|-----------------|
|-----------------|-----------------|-----------------|-----------------|
|-----------------|-----------------|-----------------|-----------------|
|-----------------|-----------------|-----------------|-5-6-5-0-1-2-3-0-|
|-5-6-5-0-1-2-3-0-|-5-6-5-0-1-2-3-0-|-5-6-5-0-1-2-3-0-|-5-6-5-0-1-2-3-0-|


  G5AbG5D5EbE5F5D5  G5AbG5D5EbE5F5D5  G5AbG5D5EbE5F5Eb5
  E E E E E E E E   E E E E E E E E   E E E E E E E  E
|-----------------|-----------------|-------------------|
|-----------------|-----------------|-------------------|
|-----------------|-----------------|-------------------|
|-----------------|-----------------|-------------------|
|-5-6-5-0-1-2-3-0-|-5-6-5-0-1-2-3-0-|-5-6-5-0-1-2-3--1--|
|-5-6-5-0-1-2-3-0-|-5-6-5-0-1-2-3-0-|-5-6-5-0-1-2-3--1--|
|
| Gtr III
| W                 W                 H       Q   E  E
|-----------------|-----------------|-------------------|
|-----------------|-----------------|-------------------|
|-----------------|-----------------|---------------17s=|
|-----------------|-----------------|-------------------|
|-----------------|-----------------|-------------------|
|-----------------|-----------------|-------------------|


 Guitar Solo
  D5                            Ab5         D5
  Gtr III
                                             ~~~
                           |3-|  |--3--|
   S  S  S  S  T  T  S  E  S  E  S  S  S  E  E
|----17h21p17-------------20p17----------------|
|-------------22p18-------------22p18----------|
|-19----------------19-17-------------19-17-19-|
|----------------------------------------------|
|----------------------------------------------|
|----------------------------------------------|


          Eb5D5 Eb5D5                  Ab5   D5
 ~~~~~~
   +H      E  E  E  E    +Q.    +E   E  E  E  E
|---------------------|--------------------------|
|---------------13----|--------------------------|
|-(19)----12h14----14-|-(14)---(14)S12-12-12s17s=|
|---------------------|-------------12-12-12s17s=|
|---------------------|--------------------------|
|---------------------|--------------------------|


   Q   Q   Q    Q
|------------------|
|------------------|
|-14--14--14--/14--|
|-14--14--14-------|
|------------------|
|------------------|


                                         Ab5            D5
   |------6-------|  |3-|  |--3--|  |-----5-----|
   S  S  S  S  S  S  E  S  S  S  S  S  S  S  S  S  S  S  S  S
|----------------------------------------------------12-14-15-|
|-13-15-13-12----------13-15-13-12----------12-13-15----------|
|-------------14-13-14-------------14-12-14-------------------|
|-------------------------------------------------------------|
|-------------------------------------------------------------|
|-------------------------------------------------------------|


                                      Eb5      D5       Eb5      D5
   |--3--|     |--3--|                 |------5-------|
   T  T  T  S  S  S  S  S  S  S  T  T  S  S  S  S  T  T  T  T  S  S  S
|-14h15p14-12----------------------------------------------------------|
|-------------13-12----------12-15p13p12----------12h13h15-13-12-------|
|-------------------14-13-14-------------14-13-14----------------14-14-|
|----------------------------------------------------------------------|
|----------------------------------------------------------------------|
|----------------------------------------------------------------------|


                                           Ab5         D5
   |-----5-----|                     |--3---|  |------6-------|
   S  S  S  S  S  S  S  S      +S   +E   E  E  S  S  S  S  S  S
|----------12-14-15-17-19b20==(19)r(19)----------------13-15-13-|
|-12-13-15------------------------------15-13-12-13-15----------|
|---------------------------------------------------------------|
|---------------------------------------------------------------|
|---------------------------------------------------------------|
|---------------------------------------------------------------|


                                     D.S. al Coda
                                      ~~~~~~~~~~~
              |--3--|
   S  S S  S  S  S  S  S  S  S  S  S  S      +Q
|---------------------12-13-15-17s20-23b24==(23)---|
|---------15-12-14-16------------------------------|
|-14-----------------------------------------------|
|----16p0------------------------------------------|
|--------------------------------------------------|
|--------------------------------------------------|


  &
  F5G5 D5     F5D5  F5G5 D5AbG5F5
  Gtrs I, II
  E Q  E +Q   E E   E Q  E E E E E
|-----------------|----------------||
|-----------------|----------------||
|-----------------|----------------||
|-----------------|----------------||
|-3-5--0-(0)--3-0-|-3-5--0-6-5-3---||
|-3-5--0-(0)--3-0-|-3-5--0-6-5-3---||


 Outro
  N.C.
  S S S S S S S S S S S S S S S S   S S S S S S S S S S S S E E
|---------------------------------|-----------------------------|
|---------------------------------|-----------------------------|
|---------------------------------|-----------------------------|
|---------------------------------|-----------------------------|
|---------------------------------|-----------------------------|
|-3-2-1-0-0-0-3-2-1-0-0-0-1-0-1-0-|-3-2-1-0-0-0-3-2-1-0-0-0-3-6-|


    S S S S S S S S S S S S S S S S   S S S S S S S S S S S S E E   3x
||----------------------------------|-------------------------------||
||o---------------------------------|------------------------------o||
||----------------------------------|-------------------------------||
||----------------------------------|-------------------------------||
||o---------------------------------|------------------------------o||
||--3-2-1-0-0-0-3-2-1-0-0-0-1-0-1-0-|-3-2-1-0-0-0-3-2-1-0-0-0-3-6---||


Duration Legend
---------------
W - whole; H - half; Q - quarter; E - 8th; S - 16th; T - 32nd; X - 64th; a - acciaccatura
+ - note tied to previous; . - note dotted; .. - note double dotted
Uncapitalized letters represent notes that are staccato (1/2 duration)
Irregular groupings are notated above the duration line
Duration letters will always appear directly above the note/fret number it represents the
duration for.  Duration letters with no fret number below them represent rests.  Multi-
bar rests are notated in the form Wxn, where n is the number of bars to rest for.  Low
melody durations appear below the staff

Tablature Legend
----------------
 h   - hammer-on
 p   - pull-off
 b   - bend
 pb  - pre-bend
 r   - bend release (if no number after the r, then release immediately)
 /\  - slide into or out of (from/to "nowhere")
 s   - legato slide
 S   - shift slide
  - natural harmonic
[n]  - artificial harmonic
n(n) - tapped harmonic
 ~   - vibrato
 tr  - trill
 T   - tap
 TP  - trem. picking
 PM  - palm muting
\n/  - tremolo bar dip; n = amount to dip
 \n  - tremolo bar down
 n/  - tremolo bar up
/n\  - tremolo bar inverted dip
 =   - hold bend; also acts as connecting device for hammers/pulls
 <>  - volume swell (louder/softer)
 x   - on rhythm slash represents muted slash
 o   - on rhythm slash represents single note slash

Misc Legend
-----------
 |  - bar
||  - double bar
||o - repeat start
o|| - repeat end
*|  - double bar (ending)
 :  - bar (freetime)
 $  - Segno
 &  - Coda
Tempo markers -  = BPM(8/16=s8/s16), where s8 = swing 8ths, s16 = swing 16ths
Suggest correction
What's this?
You can suggest a correction to this tab. Community and Mods will review your correction and vote to approve or reject it.
comments
We did not receive enough feedback on this tab! Please rate:
print report bad tab
1 2 3 4 5
guest
You may want to rate the tab now too:
select rating
Please do not post tabs as comments. Select "correction" instead!