Oops, an error
Loading. Please wait.

Get Inside Tab

version 7
version 7
2,121 views 1 this week
no commentswrite comment
1 2 3 4 5
please rate
add to favorites
launch autoscroll
font size
0
reset
how to read this tab
guitar tuner
Autoscroll
slow
fast
+/-
esc
set tempo
stop
Help us to improve Ultimate-Guitar.com Take our survey!
×
Author
Difficulty
Tuning
slash.r0cks 5,382
intermediate
B F# B E G# C#
#----------------------------------PLEASE NOTE---------------------------------#
#This file is the author's own work and represents their interpretation of the #
#song. You may only use this file for private study, scholarship, or research. #
#------------------------------------------------------------------------------#

GET INSIDE
As recorded by Stone Sour
(From the 2002 Album STONE SOUR)


Transcribed by Liam Briggs - lb.guitar.boy@gmail.com

 Words and Music by Joel Ekman, Josh Rand and Shawn Economaki

 

Gtr I (B F# B E G# C#) - 'Guitar 1'
Gtr II (B F# B E G# C#) - 'Guitar 2'
Gtr III (B F# B E G# C#) - 'Guitar 3'
Gtr IV (B F# B E G# C#) - 'Guitar 4'


   Intro
    Moderately Fast Q=154
    N.C.
   4/4
    Gtrs I, II
    S S S S S S S S S S S S S S S S   S S S S S S S S S S S S E E
||----------------------------------|------------------------------||
||o---------------------------------|-----------------------------o||
||----------------------------------|------------------------------||
||----------------------------------|------------------------------||
||o---------------------------------|-----------------------------o||
||--3-2-1-0-0-0-3-2-1-0-0-0-1-0-1-0-|-3-2-1-0-0-0-3-2-1-0-0-0-3-6--||


                                                            F5Ab5    F5E5
                                                                 3/4
  S S S S S S S S S S S S S S S S   S S S S S S S S S S S S E E   Q  E E Q
|---------------------------------|-----------------------------|-------------|
|---------------------------------|-----------------------------|-------------|
|---------------------------------|-----------------------------|-------------|
|---------------------------------|-----------------------------|-------------|
|---------------------------------|-------------------------3-6-|----3-2------|
|-3-2-1-0-0-0-3-2-1-0-0-0-1-0-1-0-|-3-2-1-0-0-0-3-2-1-0-0-0-3-6-|----3-2------|


    $
    D5       Ab5D5        EbD5EbD5           Ab5
   4/4
       PM--|                           PM--|                    ~~~
    Q  E E E Q  E   Q  Q  E E E E   Q  E E E Q  E   Q  E E E E  Q
||----------------|---------------|---------------|-------------------||
||o---------------|---------------|---------------|------------------o||
||----------------|---------------|---------------|-------------------||
||----------------|---------------|---------------|-------------------||
||o-0--0-0-0-6--0-|-0--0--1p0-1p0-|-0--0-0-0-6--0-|-0--0-0-----------o||
||--0--0-0-0-6--0-|-0--0--1p0-1p0-|-0--0-0-0-6--0-|-0--0-0-3h6-[2]----||


   Verse 1
    $$
    D5                           Eb5F#5
    Gtrs I, II
    PM-------------------------|
    E E E S S E E Q    E E E S S Q  Q
||-------------------|-----------------|
||o------------------|-----------------|
||-------------------|-----------------|
||-------------------|-----------------|
||o-0-0---0-0-0-0----|-0-0---0-0-1--4--|
||--0-0---0-0-0-0----|-0-0---0-0-1--4--|


  D5
  PM-----------------------------|
  E E E S S E E Q    E E E S S E E E E
|------------------|---------------------||
|------------------|--------------------o||
|------------------|---------------------||
|------------------|---------------------||
|-0-0---0-0-0-0----|-0-0---0-0-----6-5--o||
|-0-0---0-0-0-0----|-0-0---0-0-6-5-------||


   Pre-Chorus
    Eb5  D5
    Gtr I
    Q.   E +H       Q.   E +H       Q.   E +H
||----------------|---------------|---------------|
||o---------------|---------------|---------------|
||----------------|---------------|---------------|
||--8----7-(7)----|-8----7-(7)----|-8----7-(7)----|
||o---------------|---------------|---------------|
||----------------|---------------|---------------|
|
|   Gtr II
|   Q.   E +H       Q.   E +H       Q.   E +H
||----------------|---------------|---------------|
||o---------------|---------------|---------------|
||----------------|---------------|---------------|
||--8----7-(7)----|-8----7-(7)----|-8----7-(7)----|
||o-6----5-(5)----|-6----5-(5)----|-6----5-(5)----|
||----------------|---------------|---------------|


 1.                   2.
  D5A5F5 E5G5E5        AbG5AbG5AbG5
       PM|
  E E  E E E  Q.       E E E E E Q.
|-------------------||-----------------||
|------------------o||-----------------||
|---9------7--------||-----------------||
|-7---10-9---[9]----||---------6-5-----||
|------------------o||-6-5-------------||
|-------------------||-----6-5---------||
|
| E E  E E E  Q.       E E E E E Q.
|-------------------||-----------------||
|------------------o||-----------------||
|-------------------||-----------------||
|---7------5--------||-6-5-------------||
|-5----8-7----7----o||---------6-5-----||
|-------------------||-----6-5---------||


 Chorus
                                                             To Coda
  F5G5 D5     F5D5  F5G5 D5AbG5F5D5  F5G5 D5     F5D5  F5G5 D5AbG5F5D5
  Gtrs I, II
  E Q  E +Q   E E   E Q  E E E E E   E Q  E +Q   E E   E Q  E E E E E
|-----------------|----------------|-----------------|----------------|
|-----------------|----------------|-----------------|----------------|
|-----------------|----------------|-----------------|----------------|
|-----------------|----------------|-----------------|----------------|
|-3-5--0-(0)--3-0-|-3-5--0-6s5-3-0-|-3-5--0-(0)--3-0-|-3-5--0-6s5-3-0-|
|-3-5--0-(0)--3-0-|-3-5--0-6s5-3-0-|-3-5--0-(0)--3-0-|-3-5--0-6s5-3-0-|


                                                        D.S. al Coda
                                                        D.S. al Coda
  F5G5 D5     F5D5  F5G5 D5AbG5F5D5  F5G5 D5     F5D5  F5G5 D5AbG5F5
  E Q  E +Q   E E   E Q  E E E E E   E Q  E +Q   E E   E Q  E E E E E
|-----------------|----------------|-----------------|----------------||
|-----------------|----------------|-----------------|----------------||
|-----------------|----------------|-----------------|----------------||
|-----------------|----------------|-----------------|----------------||
|-3-5--0-(0)--3-0-|-3-5--0-6s5-3-0-|-3-5--0-(0)--3-0-|-3-5--0-6-5-3---||
|-3-5--0-(0)--3-0-|-3-5--0-6s5-3-0-|-3-5--0-(0)--3-0-|-3-5--0-6-5-3---||


  &
  F5G5 D5     F5D5  F5G5 D5AbG5F5D5  F5G5 D5     F5D5  F5G5 D5AbG5F5
  E Q  E +Q   E E   E Q  E E E E E   E Q  E +Q   E E   E Q  E E E E E
|-----------------|----------------|-----------------|----------------||
|-----------------|----------------|-----------------|----------------||
|-----------------|----------------|-----------------|----------------||
|-----------------|----------------|-----------------|----------------||
|-3-5--0-(0)--3-0-|-3-5--0-6s5-3-0-|-3-5--0-(0)--3-0-|-3-5--0-6-5-3---||
|-3-5--0-(0)--3-0-|-3-5--0-6s5-3-0-|-3-5--0-(0)--3-0-|-3-5--0-6-5-3---||


   Interlude
    N.C.                    G5AbG5D5EbE5F5D5
    Gtrs I, II
    PM---------------------------------------
    E E E E E E E E  4x     E E E E E E E E
||-------------------||-||------------------|
||o-----------------o||-||o-----------------|
||-------------------||-||------------------|
||-------------------||-||------------------|
||o-----------------o||-||o-5-6-5-0-1-2-3-0-|
||--5-6-5-0-1-2-3-0--||-||--5-6-5-0-1-2-3-0-|
|
|   Gtr III
|   W                4x     W
||-------------------||-||------------------|
||o-----------------o||-||o-----------------|
||-------------------||-||------------------|
||-------------------||-||------------------|
||o-----------------o||-||o-----------------|
||-------------------||-||------------------|


 1.                  2.
  G5AbG5D5EbE5F5D5    G5AbG5D5EbE5F5D5
 -----------------------------------|
  E E E E E E E E     E E E E E E E  E
|------------------||-------------------||
|-----------------o||-------------------||
|------------------||-------------------||
|------------------||-------------------||
|-5-6-5-0-1-2-3-0-o||-5-6-5-0-1-2-3--0--||
|-5-6-5-0-1-2-3-0--||-5-6-5-0-1-2-3--0--||
|
| W                   H       Q   E  E
|------------------||-------------------||
|-----------------o||-------------------||
|------------------||---------------17s=||
|------------------||-------------------||
|-----------------o||-------------------||
|------------------||-------------------||


 Guitar Solo
  D5                            Ab5
  Gtrs I, II
               PM---------|
   Q           E        E  E     Q           E
|----------------------------------------------|
|----------------------------------------------|
|----------------------------------------------|
|----------------------------------------------|
|--0-----------0--------0--0-----6-----------0-|
|--0-----------0--------0--0-----6-----------0-|
|
| Gtr III
|                                            ~~~
|                          |3-|  |--3--|
|  S  S  S  S  T  T  S  E  S  E  S  S  S  E  E
|----17h21p17-------------20p17----------------|
|-------------22p18-------------22-18----------|
|-19----------------19-17-------------19-17-19-|
|----------------------------------------------|
|----------------------------------------------|
|----------------------------------------------|
|
| Gtr IV
|  W
|----------------------------------------------|
|----------------------------------------------|
|----------------------------------------------|
|----------------------------------------------|
|----------------------------------------------|
|----------------------------------------------|


           Eb5D5 Eb5D5                    Ab5   D5
                               PM------|
    Q   Q   E  E  E  E     Q   E   E    E  Q     E
|----------------------|----------------------------|
|----------------------|----------------------------|
|----------------------|----------------------------|
|----------------------|----------------------------|
|---0---0---1p=0--1p=0-|---0---0---0----0--6-----0--|
|---0---0---1p=0--1p=0-|---0---0---0----0--6-----0--|
|
|~~~~~~
|  +H       E  E  E  E    +Q.     +E    E  E  E  E
|----------------------|----------------------------|
|----------------13----|----------------------------|
|-(19)-----12h14----14-|-(14)----(14)\-12-12-12s17s=|
|----------------------|---------------12-12-12s17s=|
|----------------------|----------------------------|
|----------------------|----------------------------|
|
|   W                      H            E  E  E  E
|----------------------|----------------------------|
|----------------------|----------------------------|
|----------------------|----------------------------|
|----------------------|----------------------------|
|----------------------|----------------5--5--5s10s=|
|----------------------|----------------7--7--7s12s=|


                                                                 Ab5           D5
                 ~~~                      PM------------|
   Q   E E  E E  Q      Q                 E     E        E       Q              E
|--------------------|---------------------------------------------------------------|
|--------------------|---------------------------------------------------------------|
|--------------------|---------------------------------------------------------------|
|--------------------|---------------------------------------------------------------|
|--0---0-0-----------|--0-----------------0-----0--------0-------6--------------0----|
|--0---0-0--3h6-[2]--|--0-----------------0-----0--------0-------6--------------0----|
|
|                       |------6-------|  |-----6-----|  |------5------|
|  Q   Q    Q    Q      S  S  S  S  S  S  E  S  S  S  S  S  S  S    S  S  S  S  S  S
|--------------------|------------------------------------------------------12-14-15-|
|--------------------|-13-15-13-12----------13-15-13-12------------12-13-15----------|
|-14--14---14---14\--|-------------14-13-14-------------14-12-14---------------------|
|-14--14---14--------|---------------------------------------------------------------|
|--------------------|---------------------------------------------------------------|
|--------------------|---------------------------------------------------------------|
|
|                       |------6-------|  |-----6-----|  |------5------|
|  Q   Q    Q    Q      S  S  S  S  S  S  E  S  S  S  S  S  S  S    S  S  S  S  S  S
|--------------------|---------------------------------------------------------------|
|--------------------|---------------------------------------------------------------|
|--------------------|-------------------------------------------------------4--6--7-|
|--------------------|--5--7--5--4-----------5--7--5--4-------------4--5--7----------|
|--7---7----7----7\--|--------------7--6--7--------------7--5--7---------------------|
|--9---9----9--------|---------------------------------------------------------------|


                                      Eb5      D5         Eb5      D5
   Q                    Q              E       E           E        E
|---------------------------------------------------------------------------|
|---------------------------------------------------------------------------|
|---------------------------------------------------------------------------|
|---------------------------------------------------------------------------|
|--0--------------------0--------------1p======0-----------1p=======0-------|
|--0--------------------0--------------1p======0-----------1p=======0-------|
|
|  |--3--|     |--3--|                 |-------5--------|
|  T  T  T  S  S  S  S  S  S  S  T  T  S  S  S    S  T  T  T  T  S  S  S
|-14h15p14-12---------------------------------------------------------------|
|-------------13-12----------12-15p13p12------------12h13h15-13-12----------|
|-------------------14-13-14-------------14-13---14----------------14-14----|
|---------------------------------------------------------------------------|
|---------------------------------------------------------------------------|
|---------------------------------------------------------------------------|
|
|  |--3--|     |--3--|                 |-------5--------|
|  T  T  T  S  S  S  S  S  S  S  T  T  S  S  S    S  T  T  T  T  S  S  S
|---------------------------------------------------------------------------|
|---------------------------------------------------------------------------|
|--6h=7p=6--4---------------------------------------------------------------|
|--------------5--4-----------4--7p=5p=4-------------4h=5h=7--5--4----------|
|--------------------7--6--7--------------7--6----7-----------------7--7----|
|---------------------------------------------------------------------------|


                                           Ab5           D5
                  PM---------------|
   Q              E     E            E     Q              E
|-----------------------------------------------------------------|
|-----------------------------------------------------------------|
|-----------------------------------------------------------------|
|-----------------------------------------------------------------|
|--0--------------0-----0------------0-----6--------------0-------|
|--0--------------0-----0------------0-----6--------------0-------|
|
|  |-----5-----|                     |---3----|  |------6-------|
|  S  S  S  S  S  S  S  S      +S   +E   E    E  S  S  S  S  S  S
|----------12-14-15-17-19b20==(19)r(19)------------------13-15-13-|
|-12-13-15------------------------------15---13-12-13-15----------|
|-----------------------------------------------------------------|
|-----------------------------------------------------------------|
|-----------------------------------------------------------------|
|-----------------------------------------------------------------|
|
|  |-----5-----|                     |---3----|  |------6-------|
|  S  S  S  S  S  S  S  S      +S   +E   E    E  S  S  S  S  S  S
|-----------------------------------------------------------------|
|--------------------5--7b8====(7)r=(7)---------------------------|
|-----------4--6--7---------------------------------------5--7--5-|
|--4--5--7-------------------------------7----5--4--5--7----------|
|-----------------------------------------------------------------|
|-----------------------------------------------------------------|


                             D.S.S. al Dbl. Coda
                                             ~~~~
   Q          E        E     E     E         Q
|------------------------------------------------||
|------------------------------------------------||
|------------------------------------------------||
|------------------------------------------------||
|--0----------0--------0-------------------------||
|--0----------0--------0-----3h====6--------[2]--||
|
|                                            ~~~~
|             |--3--|
|  S  S S  S  S  S  S  S  S  S  S  S  S     +Q
|---------------------12-13-15-17s20-23b24-(23)--||
|---------15-12-14-16----------------------------||
|-14---------------------------------------------||
|----16p0----------------------------------------||
|------------------------------------------------||
|------------------------------------------------||
|
|                                            ~~~~
|             |--3--|
|  S  S S  S  S  S  S  S  S  S  S  S  S     +Q
|------------------------------------------------||
|-------------------------------5s=8-11b12-(11)--||
|----------------------4--5--7-------------------||
|----------7--4--6--8----------------------------||
|--7--4p0----------------------------------------||
|------------------------------------------------||


   Outro
    &&
    N.C.
    Gtrs I, II
    S S S S S S S S S S S S S S S S   S S S S S S S S S S S S E E   4x
||----------------------------------|-------------------------------||
||o---------------------------------|------------------------------o||
||----------------------------------|-------------------------------||
||----------------------------------|-------------------------------||
||o---------------------------------|------------------------------o||
||--3-2-1-0-0-0-3-2-1-0-0-0-1-0-1-0-|-3-2-1-0-0-0-3-2-1-0-0-0-3-6---||




--------------------------------------------------------------------------------


Duration Legend
---------------
W - whole; H - half; Q - quarter; E - 8th; S - 16th; T - 32nd; X - 64th; a - acciaccatura
+ - note tied to previous; . - note dotted; .. - note double dotted
Uncapitalized letters represent notes that are staccato (1/2 duration)
Irregular groupings are notated above the duration line
Duration letters will always appear directly above the note/fret number it represents the
duration for.  Duration letters with no fret number below them represent rests.  Multi-
bar rests are notated in the form Wxn, where n is the number of bars to rest for.  Low
melody durations appear below the staff

Tablature Legend
----------------
 h   - hammer-on
 p   - pull-off
 b   - bend
 pb  - pre-bend
 r   - bend release (if no number after the r, then release immediately)
 /\  - slide into or out of (from/to "nowhere")
 s   - legato slide
 S   - shift slide
 - natural harmonic
[n]  - artificial harmonic
n(n) - tapped harmonic
 ~   - vibrato
 tr  - trill
 T   - tap
 TP  - trem. picking
 PM  - palm muting
\n/  - tremolo bar dip; n = amount to dip
 \n  - tremolo bar down
 n/  - tremolo bar up
/n\  - tremolo bar inverted dip
 =   - hold bend; also acts as connecting device for hammers/pulls
 <> - volume swell (louder/softer)
 x   - on rhythm slash represents muted slash
 o   - on rhythm slash represents single note slash

Misc Legend
-----------
 |  - bar
||  - double bar
||o - repeat start
o|| - repeat end
*|  - double bar (ending)
 :  - bar (freetime)
 $  - Segno
 &  - Coda
Tempo markers -  = BPM(8/16=s8/s16), where s8 = swing 8ths, s16 = swing 16ths
Suggest correction
What's this?
You can suggest a correction to this tab. Community and Mods will review your correction and vote to approve or reject it.
comments
We did not receive enough feedback on this tab! Please rate:
print report bad tab
1 2 3 4 5
guest
You may want to rate the tab now too:
select rating
Please do not post tabs as comments. Select "correction" instead!