Oops, an error
Loading. Please wait.

Hell And Consequences Tab

version 4
version 4
551 views 1 this week
no commentswrite comment
1 2 3 4 5
please rate
add to favorites
launch autoscroll
font size
0
reset
how to read this tab
guitar tuner
Autoscroll
slow
fast
+/-
esc
set tempo
stop
Help us to improve Ultimate-Guitar.com Take our survey!
×
Author
[travis] 4,565
-------------------------------------------------------------------------------
                             "Hell & Consequences" --- Stone Sour
-------------------------------------------------------------------------------

Tabbed by: [travis]



*I don't know why there isn't a good tab of this awesome song on here. So, I 
 decided to tab it out. The solo has a lot of whammy bar usage in it. The trick 
 to playing the solo is to hold the whammy bar while you're playing it.




Key: F Major (F G A Bb C D E)



Tuning: Drop B (B F# B E G# C#) low to high


Legend:

... = palm mute
h = hammer on
p = pull off
b = bend
pb = pre bend
T = tap
.5 = half step bend
1 = whole step bend
1.5 = whole step and a half
/ = slide up
\ = slide down
* = pinch harmonic
~ = vibrato
h/ = pick once and slide
p\ = pick once and slide
h/p\ = pick once
p\h/ = pick once
w = whammy bar
-1 = push down whammy bar one step
-.5 = push down whammy bar half step
() = bring bent note back to normal / note not picked
__ = hold bend



====================================
Intro:

Guitar 1:
C#|----------------------------------------------------------------------|
G#|----------------------------------------------------------------------|
E |----------------------------------------------------------------------|
B |----------------------------------------------------------------------|
F#|----------------------------------------------------------------------|
B |-19p\-5-3-0-6-3-0-5-3-5-3-0-6-3-0-5-3-5-3-0-6-3-0-5-3-5-3-0-6-3-0-5-3-|

Guitar 2:
C#|----------------------------------------------------------------------|
G#|----------------------------------------------------------------------|
E |----------------------------------------------------------------------|
B |----------------------------------------------------------------------|
F#|----------------------------------------------------------------------|
B |-19p\-5-3-0-6-3-0-5-3-5-3-0-6-3-0-5-3-5-3-0-6-3-0-5-3-5-3-0-6-3-0-3-0-|

===================================
Guitar 1:
C#|-----------------------------------------------------------------|
G#|-----------------------------------------------------------------|
E |-----------------------------------------------------------------|
B |-5-3-0-6-3-0-5-3-5-3-0-6-3-0-5-3-5-3-0-6-3-0-5-3-5-3-0-6-3-0-5-3-|
F#|-----------------------------------------------------------------|
B |-----------------------------------------------------------------|

Guitar 2:
C#|-----------------------------------------------------------------|
G#|-----------------------------------------------------------------|
E |-----------------------------------------------------------------|
B |-----------------------------------------------------------------|
F#|-5-3-0-6-3-0-5-3-5-3-0-6-3-0-5-3-5-3-0-6-3-0-5-3-5-3-0-6-3-0-5-3-|
B |-5-3-0-6-3-0-5-3-5-3-0-6-3-0-5-3-5-3-0-6-3-0-5-3-5-3-0-6-3-0-5-3-|
    ...............................................................

====================================
Guitars 1 and 2:
C#|------------------------------------------------------------------------|
G#|------------------------------------------------------------------------|
E |------------------------------------------------------------------------|
B |------------------------------------------------------------------------|
F#|------------------------------------------------------------------------|
B |-0000-0--0000-0h1--0000-0--0000-0h1--0000-0--0000-0h1--0000-0--0000-0h1-|
    ....    ....      ....    ....      ....    ....      ....    ....

====================================
Verse 1:

Guitars 1 and 2:
C#|---------------------------------|
G#|---------------------------------|
E |---------------------------------|
B |---------------------------------| x4
F#|-----5-----------------5---------|
B |-0-3---3-0-6-3-0-3-0-3---3-0-5-3-|

End of Verse 1.
====================================
Pre Chorus 1:

Guitars 1 and 2:
C#|------------------------------------------------------------------------|
G#|------------------------------------------------------------------------|
E |------------------------------------------------------------------------|
B |------------------------------------------------------------------------|
F#|------------------------------------------------------------------------|
B |-0000-0--0000-0h1--0000-0--0000-0h1--0000-0--0000-0h1--0000-0--0000-0h1-|
    ....    ....      ....    ....      ....    ....      ....    ....

End of Pre Chorus 1.
===================================
Chorus 1:

Guitar 1:
C#|----------------------------------------------------------------------------------------|
G#|----------------------------------------------------------------------------------------|
E |5--5-5~~5~~5-5--5~~-8--8-8~~8~~-8-8--8~~-3--3-3~~-3~~--3-3--5----5-5-5~~-5-5-5-5-5-5-5-5|
B |3--3-3~~3~~3-3--3~~-6--6-6~~6~~-6-6--6~~-1--1-1~~-1~~--1-1--3----5-5-5~~-5-5-5-5-5-5-5-5| x2
F#|3--3-3~~3~~3-3--3~~-6--6-6~~6~~-6-6--6~~-1--1-1~~-1~~--1-1--3--x-3-3-3~~-3-3-3-3-3-3-3-3|
B |3--3-3~~3~~3-3--3~~-6--6-6~~6~~-6-6--6~~-1--1-1~~-1~~--1-1--3--x------------------------|

Guitar 2:
C#|-------------------------------------------------|
G#|-18-18-20----18-20-18-20----18-20----18-20----20-|
E |----------17-------------17-------17-------17----|
B |-------------------------------------------------| x8
F#|-------------------------------------------------|
B |-------------------------------------------------|

End of Chorus 1.
====================================

Interlude:



Guitars 1 and 2:
C#|-----------------------------------------------------------------|
G#|-----------------------------------------------------------------|
E |-----------------------------------------------------------------|
B |-----------------------------------------------------------------|
F#|-3h5-3h5-3p0-0-0-0-6-0-5-0-0-3h5-3h5-3h5-3p0-0-0-0-6-0-5-0-0-3h5-|
B |-3h5-3h5-3p0-0-0-0-6-0-5-0-0-3h5-3h5-3h5-3p0-0-0-0-6-0-5-0-0-3h5-|
                .....   .   ...                 .....   .   ...

End of Interlude 1.
====================================
Verse 2:

Guitars 1 and 2:
C#|---------------------------------|
G#|---------------------------------|
E |---------------------------------|
B |---------------------------------| x4
F#|-----5-----------------5---------|
B |-0-3---3-0-6-3-0-3-0-3---3-0-5-3-|

End of Verse 2.
====================================
Pre Chorus 2:

Guitars 1 and 2:
C#|------------------------------------------------------------------------|
G#|------------------------------------------------------------------------|
E |------------------------------------------------------------------------|
B |------------------------------------------------------------------------|
F#|------------------------------------------------------------------------|
B |-0000-0--0000-0h1--0000-0--0000-0h1--0000-0--0000-0h1--0000-0--0000-0h1-|
    ....    ....      ....    ....      ....    ....      ....    ....

End of Pre Chorus 2.
====================================
Chorus 2:

Guitar 1:
C#|------------------------------------------------------------------------------------------|
G#|------------------------------------------------------------------------------------------|
E |5--5-5~~5~~5-5--5~~8--8-8~~-8~~-8-8--8~~--3--3-3~~--3~~--3-3--5----5-5-5~~-5-5-5-5-5-5-5-5|
B |3--3-3~~3~~3-3--3~~6--6-6~~-6~~-6-6--6~~--1--1-1~~--1~~--1-1--3----5-5-5~~-5-5-5-5-5-5-5-5| x2
F#|3--3-3~~3~~3-3--3~~6--6-6~~-6~~-6-6--6~~--1--1-1~~--1~~--1-1--3--x-3-3-3~~-3-3-3-3-3-3-3-3|
B |3--3-3~~3~~3-3--3~~6--6-6~~-6~~-6-6--6~~--1--1-1~~--1~~--1-1--3--x------------------------|

Guitar 2:
C#|-------------------------------------------------|
G#|-18-18-20----18-20-18-20----18-20----18-20----20-|
E |----------17-------------17-------17-------17----|
B |-------------------------------------------------| x8
F#|-------------------------------------------------|
B |-------------------------------------------------|

End of Chorus 2.
====================================
Interlude:

Guitars 1 and 2:
C#|-----------------------------------------------------------------|
G#|-----------------------------------------------------------------|
E |-----------------------------------------------------------------|
B |-----------------------------------------------------------------|
F#|-----------------------------------------------------------------|
B |-5-3-0-6-3-0-5-3-5-3-0-6-3-0-5-3-5-3-0-6-3-0-5-3-5-3-0-6-3-0-5-3-|

End of Interlude.
====================================
Guitar Solo:

Guitar 1: Use an octave pedal or harmonizer.
                                                         -1.5   -1.5
C#|-------------------------------------------------------------------------------------|
G#|-13h16p13h15h/21\15p13---------------------------------------------------------------|
E |-----------------------14----14h/20-18----21-20~~~~~~~~18w--(18)w--(18)~~~-15w~~~~~~~|
B |--------------------------16-----------19--------------------------------------------|
F#|-------------------------------------------------------------------------------------|
B |-------------------------------------------------------------------------------------|

Guitar 2:
C#|-------------------------------------------------|
G#|-------------------------------------------------|
E |-------------------------------------------------|
B |-------------------------------------------------|
F#|-3p0-0-0-1p0-0-0-0-3-0-3-0-3-1-3-3p0-0-0-1p0-0-0-|
B |-3p0-0-0-1p0-0-0-0-3-0-3-0-3-1-3-3p0-0-0-1p0-0-0-|
        ...     .....   .   .           ...     ...

===================================
Guitar 1:
C#|-----------------------------------------10h11/14~~~---------------------------------10p\-------|
G#|------------------------------------11h13-----------16p\13-13p11p10-11-13-15~~~(15)w-----/14h16-|
E |14w~~15w~~14w~~-----14w~~~~14w~~~~14------------------------------------------------------------|
B |---------------17w~~----------------------------------------------------------------------------|
F#|------------------------------------------------------------------------------------------------|
B |------------------------------------------------------------------------------------------------|

Guitar 2:
C#|-------------------------------------------------|
G#|-------------------------------------------------|
E |-------------------------------------------------|
B |-------------------------------------------------|
F#|-0-3-0-3-0-6-3-5-3p0-0-0-1p0-0-0-0-3-0-3-0-3-1-3-|
B |-0-3-0-3-0-6-3-5-3p0-0-0-1p0-0-0-0-3-0-3-0-3-1-3-|

====================================
Guitar 1:
          T              T                 T             T       T
C#|-14h17-20p17p14h17p14-----------------------------------------------------------|
G#|----------------------------------15h19-22p19p15--------------------------------|
E |----------------------20p17p15p14---------------14------------------------------|
B |-----------------------------------------------------------------------12h13-12-|
F#|--------------------------------------------------15\-22p18p15------------------|
B |--------------------------------------------------------------19p16p\12---------|

Guitar 1:
C#|-/14~~~~~~~~\11~~~~~~~\10-11/14\11~~~~~10-11/14\10~~~~~~~~~~~~(10)p\5-|
G#|----------------------------------------------------------------------|
E |----------------------------------------------------------------------|
B |----------------------------------------------------------------------|
F#|----------------------------------------------------------------------|
B |----------------------------------------------------------------------|

Guitar 1:
C#|-------------------------------------------------------------------------------------|
G#|-------------------------/19~~~~~~~\16~~~~~~\15-16/19\16~~~~~~~15-16/19\15~~~~~~~~~~~|
E |-14/20-20\18/20\14--14~~~------------------------------------------------------------|
B |-------------------------------------------------------------------------------------|
F#|-------------------------------------------------------------------------------------|
B |-------------------------------------------------------------------------------------|

Guitar 1:
C#|-------14-17-14----------14-17-14----------14-17-/22~~~~~~~~~~~~~~~~~|
G#|-15-16----------16-15-16----------16-15-16---------------------------|
E |---------------------------------------------------------------------|
B |---------------------------------------------------------------------|
F#|---------------------------------------------------------------------|
B |---------------------------------------------------------------------|

Guitar 2: Play this over the solo.
C#|-----------------------------------------------------------------|
G#|-----------------------------------------------------------------|
E |-----------------------------------------------------------------|
B |-----------------------------------------------------------------| x2
F#|-3p0-0-0-1p0-0-0-0-3-0-3-0-3-1-3-3p0-0-0-1p0-0-0-0-3-0-3-0-6-3-5-|
B |-3p0-0-0-1p0-0-0-0-3-0-3-0-3-1-3-3p0-0-0-1p0-0-0-0-3-0-3-0-6-3-5-|
        ...     .....   .   .           ...     .....   .   .  

End of Guitar Solo.
=======================================
Verse 3:

Guitar 1:
                                                     1_____________
C#|-22--22--22--22--22--22---22---22--22--22--22--22pb---22--22~~~~|
G#|----------------------------------------------------------------|
E |----------------------------------------------------------------|
B |----------------------------------------------------------------|
F#|----------------------------------------------------------------|
B |----------------------------------------------------------------|

Guitar 2:
C#|---------------------------------|
G#|---------------------------------|
E |---------------------------------|
B |---------------------------------| x2
F#|-----5-----------------5---------|
B |-0-3---3-0-6-3-0-3-0-3---3-0-5-3-|



Guitar 3:
C#|--------------------------------------------|
G#|--------------------------------------------|
E |--------------------------------------------|
B |--------------------------------------------| x2
F#|------17----------------------17------------|
B |-0-15----15-0-18-15-0-15-0-15----15-0-17-15-|

End of Verse 3.
===============================================
Pre Chorus 3:

Guitars 1 and 2:
C#|------------------------------------------------------------------------|
G#|------------------------------------------------------------------------|
E |------------------------------------------------------------------------|
B |------------------------------------------------------------------------|
F#|------------------------------------------------------------------------|
B |-0000-0--0000-0h1--0000-0--0000-0h1--0000-0--0000-0h1--0000-0--0000-0h1-|
    ....    ....      ....    ....      ....    ....      ....    ....

Pre Chorus 3.
===============================================
Chorus 3:

Guitar 1:
C#|-----------------------------------------------------------------------------------------|
G#|-----------------------------------------------------------------------------------------|
E |5--5-5~~5~~5-5--5~~-8--8-8~~-8~~-8-8--8~~-3--3-3~~-3~~--3-3--5----5-5-5~~-5-5-5-5-5-5-5-5|
B |3--3-3~~3~~3-3--3~~-6--6-6~~-6~~-6-6--6~~-1--1-1~~-1~~--1-1--3----5-5-5~~-5-5-5-5-5-5-5-5| x4
F#|3--3-3~~3~~3-3--3~~-6--6-6~~-6~~-6-6--6~~-1--1-1~~-1~~--1-1--3--x-3-3-3~~-3-3-3-3-3-3-3-3|
B |3--3-3~~3~~3-3--3~~-6--6-6~~-6~~-6-6--6~~-1--1-1~~-1~~--1-1--3--x------------------------|

Guitar 2:
C#|-------------------------------------------------|
G#|-18-18-20----18-20-18-20----18-20----18-20----20-|
E |----------17-------------17-------17-------17----|
B |-------------------------------------------------| x16
F#|-------------------------------------------------|
B |-------------------------------------------------|

End of Chorus 3.
================================================
Outro:



Guitars 1 and 2:
C#|-----------------------------------------------------------------|
G#|-----------------------------------------------------------------|
E |-----------------------------------------------------------------|
B |-----------------------------------------------------------------| x2
F#|-3h5-3h5-3p0-0-0-0-6-0-5-0-0-3h5-3h5-3h5-3p0-0-0-0-6-0-5-0-0-3h5-|
B |-3h5-3h5-3p0-0-0-0-6-0-5-0-0-3h5-3h5-3h5-3p0-0-0-0-6-0-5-0-0-3h5-|
                .....   .   ...                 .....   .   ...



Please Rate and Comment My Tab
Thanks
[travis]
Suggest correction new What's this?
You can suggest a correction to this tab. Community and Mods will review your correction and vote to approve or reject it.
comments
We did not receive enough feedback on this tab! Please rate:
print report bad tab
1 2 3 4 5
guest
You may want to rate the tab now too:
select rating
Please do not post tabs as comments. Select "correction" instead!