Oops, an error
Loading. Please wait.

Hell And Consequences Tab

version 5
version 5
4,900 views 9 this week
no commentswrite comment
1 2 3 4 5
excellent!
x 4
add to favorites
launch autoscroll
font size
0
reset
how to read this tab
guitar tuner
Autoscroll
slow
fast
+/-
esc
set tempo
stop
Help us to improve Ultimate-Guitar.com Take our survey!
×
Author
Difficulty
Tuning
advanced
B F# B E G# C#
Band:  Stone Sour
Song:  Hell & Consequences
Album: Come What(ever) May

Guitar 1 Jim  (B,F#,B,E,G#,C#)
Guitar 2 Josh (B,F#,B,E,G#,C#)
this song is played in Drop B tuning (B,F#,B,E,G#,C#) LOW TO HIGH
please rate :)

the link below is the link where i figured out this tab...
http://www.youtube.com/watch?v=G66dsaCutqU

Legend:
hammer on:      h
slide up:       /
slide down:     \
palm mute:      PM
vibrato:        ~~~
muted note:     x
touch harmonic: TCH


intro
both guitars
C||----||--------------------|--------------------||
G||----||o------------------o|o------------------o||
E||----||--------------------|--------------------||
B||--\-||--5-3-0-6-3-0-5-3---|--5-3-0-6-3-0-5-3---||
F||--\-||o-5-3-0-6-3-0-5-3--o|o-5-3-0-6-3-0-5-3--o||
B||--\-||--5-3-0-6-3-0-5-3---|--5-3-0-6-3-0-5-3---||

Guitar 1
C||-----------------|
G||-----------------|
E||-----------------|
B||-5-3-0-6-3-0-5-3-|
F||-5-3-0-6-3-0-5-3-|
B||-5-3-0-6-3-0-5-3-|
    PM-------------       

Guitar 2
C||-----------------------|
G||-----------------------|
E||-----------------------|
B||-----------------------|
F||-----------------------|
B||-17-15-0-18-15-0-17-15-|
    PM-------------------


verse 1
both guitars
C||------------------------|
G||------------------------|
E||------------------------|
B||------------------------|
F||-0-0-0-0-0--0-0-0-0-0h1-|
B||-0-0-0-0-0--0-0-0-0-0h1-|
    PM-----    PM-----

Guitar 2
C||------------------------|
G||------------------------|
E||------------------------|
B||------------------------|
F||-0-0-0-0-0--0-0-0-0-0h1-|
B||-0-0-0-0-0--0-0-0-0-0h1-|
    PM-----    PM-----

Guitar 1
C||------------------------|
G||------------------------|
E||------------------------|
B||---------7----------7/8-|
F||-5-5-5-5-5--5-5-5-5-5/6-|
B||------------------------|
    PM-----    PM-----


verse 2
guitar 2
C||---------------------------------|
G||---------------------------------|
E||---------------------------------|
B||---------------------------------|
F||-----5-----------------5---------|
B||-0-3---3-0-6-3-0-3-0-3---3-0-7-3-|
    PM-----------------------------

guitar 1
C||--------------------------------------------|
G||--------------------------------------------|
E||--------------------------------------------|
B||--------------------------------------------|
F||------17----------------------17------------|
B||-0-15----15-0-18-15-0-15-0-15----15-0-19-15-|
    PM----------------------------------------


chorus
guitar 2
C||------------|------------|------------|-----------------|
G||------------|------------|------------|-----------------|
E||--------5~~-|--------8~~-|--------3~~-|-----------------|
B||-3------3~~-|-6------6~~-|-1------1~~-|-3------5-x-5~~~-|
F||-3---3--3~~-|-6---6--6~~-|-1---1--1~~-|-3---3--3-x-3~~~-|
B||-3---3--3~~-|-6---6--6~~-|-1---1--1~~-|-3---3-----------|
        PM           PM           PM           PM

guitar 1
C||-----------------|-----------------|
G||-----------------|-----------------|
E||---------5-------|---------5-------|
B||-----3-----3---3-|-----3-----3---3-|
F||---3---3-----3---|---3---3-----3---|
B||-3---------------|-3---------------|
    PM-----   PM---   PM-----   PM---

C||-----------------|-----------------|
G||-----------------|-----------------|
E||---------8/10\7~-|---------8/10\7~-|
B||-----6-----------|-----6-----------|
F||---6---6---------|---6---6---------|
B||-6---------------|-6---------------|
    PM-----           PM-----

C||-----------------|-----------------|
G||-----------------|-----------------|
E||---------3-------|---------3-------|
B||-----1-----1---1-|-----1-----1---1-|
F||---1---1-----1---|---1---1-----1---|
B||-1---------------|-1---------------|
    PM-----   PM---   PM-----   PM---

C||------------|------------------|
G||------------|------------------|
E||-10\-5/-9~~-|-(9)~~~~(21)TCH---|
B||------------|------------------|
F||--8\-3/-7~~-|------------------|
B||------------|------------------|


verse 3
both guitars
C||-----------------------------------|
G||o---------------------------------o|
E||-----------------------------------|
B||-----------------------------------|
F||o---------------------------------o|
B||--3-5-3-5-3-0-0-0-0-6-0-5-0-0-3h5--|
                 PM---   PM  PM-

Solo JOSH
guitar 2
Part 1
C||-10h11h13/15-------------------------------|
G||-------------13-15----13-15-------13/15~~--|
E||-------------------14-------14-13----------|
B||-------------------------------------------|
F||-------------------------------------------|
B||-------------------------------------------|

C||-----------------------------------------------------|
G||---------------------------------161820-201816-------|
E||-/17-15-14/17/16/15/16~~--141719---------------19~~--|
B||-----------------------------------------------------|
F||-----------------------------------------------------|
B||-----------------------------------------------------|

C||-------201716--------171615---------------------------|
G||--------------181615--------161513--------------------|
E||-14h15-----------------------------141312-11/12/11~~--|
B||------------------------------------------------------|
F||------------------------------------------------------|
B||------------------------------------------------------|

Part 2
C||-----------------------------------------------------|
G||-/19-16--15/16/19/16/15--16/19/16--------------------|
E||-----------------------------------14/19-14/17/14----|
B||-----------------------------------------------------|
F||-----------------------------------------------------|
B||-----------------------------------------------------|

C||------------------------------------|
G||-/19-16--15/16/19/16--15/16/19/16---|
E||------------------------------------|
B||------------------------------------|
F||------------------------------------|
B||------------------------------------|

C||----------------------161720BU(22)-22-22-22-22--|
G||---------------151618---------------------------|
E||--------131417----------------------------------|
B||-131517-----------------------------------------|
F||------------------------------------------------|
B||------------------------------------------------|


solo rhythm
guitar 1
C||-------------------------------------------------------------------|
G||-------------------------------------------------------------------|
E||-------------------------------------------------------------------|
B||-------------------------------------------------------------------|
F||-------------------------------------------------------------------|
B||--3p0-0-0-1p0-0-0-0-3-0-3-0-3-1-3-3p0-0-0-1p0-0-0-0-3-0-3-0-6-3-5--|
PM       PM-     PM---   PM  PM          PM      PM---   PM  PM

thats all :)
Suggest correction
comments
print report bad tab
guest
You may want to rate the tab now too:
select rating
Please do not post tabs as comments. Select "correction" instead!