Oops, an error
Loading. Please wait.

Hesitate Tab

version 1
version 1

Acoustic

Interactive

15,523 views 39 this week
1 commentread comment
1 2 3 4 5
please rate
add to favorites
launch autoscroll
font size
0
reset
how to read this tab
guitar tuner
Tab Pro tools
  • play this tab
  • loop segment
  • change instrument
  • show fretboard
  • metronome
×
Best way to learn
"Hesitate"
Autoscroll
slow
fast
+/-
esc
set tempo
stop
Contributor
Difficulty
Tuning
intermediate
D# G# C# F# A# D#
This is not my own work it is the work of Majin Gaara. I simply exported the ASCII from 
guitar pro and uploaded it here.

I found it easier to use my index and ring finger, barring the strings, for parts where 
3 strings require playing.
eg.
--
--
4L
4L
6L
--

Title: Hesitate (Acoustic)
Artist: Stone Sour
Album: Audio Secrecy
Words: Corey Taylor
Music: Stone Sour
Tabber: Majin Gaara
Tempo = 128
Corey


Legend
L - tied note
x - dead note
h - hammer on/pull off
b - bend
s - slide
~ - vibrato
g - ghost note
> - accentuated note
t - trill
M - palm mute
. - staccato
P - popping (bass)
S - slapping (bass)
+ - tapping
W - wide vibrato
< - fade in
w - whammy bar
= - tremolo picking
v - brush up
^ - brush down
V - pick stroke up
n - pick stroke down


D#|-------|----------------------------|-------|----------------------------|
A#|--0----|--0--------0L----0----------|--0----|--0--------0L----0----------|
F#|--4----|--6--------8L----8----------|--4----|--6--------8L----8----------|
C#|-------|----------------------------|-------|----------------------------|
G#|-------|----------------------------|-------|----------------------------|
D#|-------|----------------------------|-------|----------------------------|


-------|----------------------------|----------------------------|
--0----|--0--------0L----0----------|--------0-----0-----0-------|
--4----|--6--------8L----8----------|--3--------3-----3-----3----|
-------|----------------------------|----------------------------|
-------|----------------------------|----------------------------|
-------|----------------------------|----------------------------|


--------0L----------0-------|-------|----------------------------|-------|
-----0----------------------|-------|----------------------------|-------|
--4-------------------------|-------|----------------------------|-------|
----------------------------|--2----|--4--------6L-------6-------|--2----|
----------------------------|--2----|--4--------6L-------6-------|--2----|
----------------------------|--0----|--2--------4L-------4-------|--0----|

                                                                    ^
----------------------------|-------|----------------------------|-------|
----------------------------|-------|----------------------------|-------|
--4-------------------------|-------|----------------------------|-------|
--4--------4L-------4-------|--2----|--4--------6L-------6-------|--8----|
--2--------4L-------4-------|--2----|--4--------6L-------6-------|--6----|
-----------2L-------2-------|--0----|--2--------4L-------4-------|-------|

  ^
-------|-------|----------------------------|-------|
-------|-------|----------------------------|-------|
-------|-------|----------------------------|-------|
--9----|--2----|--4--------6L-------6-------|--2----|
--7----|--2----|--4--------6L-------6-------|--2----|
-------|--0----|--2--------4L-------4-------|--0----|

                                                                    ^
----------------------------|-------|----------------------------|-------|
----------------------------|-------|----------------------------|-------|
--4-------------------------|-------|----------------------------|-------|
--4--------4L-------4-------|--2----|--4--------6L-------6-------|--8----|
--2--------4L-------4-------|--2----|--4--------6L-------6-------|--6----|
-----------2L-------2-------|--0----|--2--------4L-------4-------|-------|

  ^       ^       ^       ^  v  ^  v  ^  v  ^  v
-------|-------|-------||---------------------------|
-------|-------|-------||---------------------------|
-------|-------|-------||o--------------------------|
--9----|--8----|--9----||o9--9--9--9--9--9--9--9----|
--7----|--6----|--7----||-9--9--9--9--9--9--9--9----|
-------|-------|-------||-7--7--7--7--7--7--7--7----|

  ^  v  ^  v  ^  v  ^  v       ^  v  ^  v  ^  v  ^  v
----------------------------|----------------------------|
----------------------------|----------------------------|
----------------------------|----------------------------|
--9--9--9--9--9--9--9--9----|--6--6--6--6--6--6--6--6----|
--9--9--9--9--9--9--9--9----|--6--6--6--6--6--6--6--6----|
--7--7--7--7--7--6--6--6----|--4--4--4--4--4--4--4--4----|

  ^  v  ^  v  ^  v  ^  v       ^  v  ^  v  ^  v  ^  v
----------------------------|----------------------------|
----------------------------|----------------------------|
----------------------------|--9--9--9--9--9--9--9--9----|
--6--6--6--6--6--9--9--9----|--9--9--9--9--9--9--9--9----|
--6--6--6--6--6--9--9--9----|--7--7--7--7--7--7--7--7----|
--4--4--4--4--4--7--7--7----|----------------------------|

  ^  v  ^  v  ^  v  ^  v       ^  v  ^  v  ^  v  ^  v
----------------------------|----------------------------|
----------------------------|----------------------------|
--9--9--9--9--9--9--9--9----|----------------------------|
--9--9--9--9--9--9--9--9----|--9--9--9--9--9--9--9--9----|
--7--7--7--7--7--7--7--7----|--9--9--9--9--9--9--9--9----|
----------------------------|--7--7--7--7--7--7--7--7----|

  ^  v                         ^  v
---------------------------||----------------------------|-------|
---------------------------||----------------------------|--0----|
--------9--------9--------o||--------9s------------------|--4----|
--9--9--9--------9--------o||--9--9--9s------------------|-------|
--9--9--7--------7---------||--9--9--7s------------------|-------|
--7--7---------------------||--7--7----------------------|-------|


----------------------------|-------|----------------------------|-------|
--0--------0L----0----------|--0----|--0--------0L----0----------|--0----|
--6--------8L----8----------|--4----|--6--------8L----8----------|--4----|
----------------------------|-------|----------------------------|-------|
----------------------------|-------|----------------------------|-------|
----------------------------|-------|----------------------------|-------|


----------------------------|----------------------------|
--0--------0L----0----------|--------0-----0-----0-------|
--6--------8L----8----------|--3--------3-----3-----3----|
----------------------------|----------------------------|
----------------------------|----------------------------|
----------------------------|----------------------------|


--------0L----------0-------|-------|----------------------------|-------|
-----0----------------------|-------|----------------------------|-------|
--4-------------------------|-------|----------------------------|-------|
----------------------------|--2----|--4--------6L-------6-------|--2----|
----------------------------|--2----|--4--------6L-------6-------|--2----|
----------------------------|--0----|--2--------4L-------4-------|--0----|

                                                                    ^
----------------------------|-------|----------------------------|-------|
----------------------------|-------|----------------------------|-------|
--4-------------------------|-------|----------------------------|-------|
--4--------4L-------4-------|--2----|--4--------6L-------6-------|--8----|
--2--------4L-------4-------|--2----|--4--------6L-------6-------|--6----|
-----------2L-------2-------|--0----|--2--------4L-------4-------|-------|

  ^       ^  v  ^  v  ^  v  ^  v       ^  v  ^  v  ^  v  ^  v
-------||---------------------------|----------------------------|
-------||---------------------------|----------------------------|
-------||o--------------------------|----------------------------|
--9----||o9--9--9--9--9--9--9--9----|--9--9--9--9--9--9--9--9----|
--7----||-9--9--9--9--9--9--9--9----|--9--9--9--9--9--9--9--9----|
-------||-7--7--7--7--7--7--7--7----|--7--7--7--7--7--6--6--6----|

  ^  v  ^  v  ^  v  ^  v       ^  v  ^  v  ^  v  ^  v
----------------------------|----------------------------|
----------------------------|----------------------------|
----------------------------|----------------------------|
--6--6--6--6--6--6--6--6----|--6--6--6--6--6--9--9--9----|
--6--6--6--6--6--6--6--6----|--6--6--6--6--6--9--9--9----|
--4--4--4--4--4--4--4--4----|--4--4--4--4--4--7--7--7----|

  ^  v  ^  v  ^  v  ^  v       ^  v  ^  v  ^  v  ^  v
----------------------------|----------------------------|
----------------------------|----------------------------|
--9--9--9--9--9--9--9--9----|--9--9--9--9--9--9--9--9----|
--9--9--9--9--9--9--9--9----|--9--9--9--9--9--9--9--9----|
--7--7--7--7--7--7--7--7----|--7--7--7--7--7--7--7--7----|
----------------------------|----------------------------|

  ^  v  ^  v  ^  v  ^  v       ^  v
----------------------------|---------------------------||----------|-------|
----------------------------|---------------------------||----------|-------|
----------------------------|--------9--------9--------o||----------|-------|
--9--9--9--9--9--9--9--9----|--9--9--9--------9--------o||--2--4----|--6----|
--9--9--9--9--9--9--9--9----|--9--9--7--------7---------||--2--4----|--6----|
--7--7--7--7--7--7--7--7----|--7--7---------------------||--0--2----|--4----|


----------|-------|----------|-------|-------|-------|----------|-------|
----------|-------|----------|-------|-------|-------|----------|-------|
----------|-------|----------|-------|-------|-------|----------|-------|
--2--4----|--6----|--2--4----|--6----|--4----|--4----|--2--4----|--6----|
--2--4----|--6----|--2--4----|--6----|--4----|--4----|--2--4----|--6----|
--0--2----|--4----|--0--2----|--4----|--2----|--2----|--0--2----|--4----|


----------|-------|----------|-------|----------------------------|
----------|-------|----------|-------|----------------------------|
----------|-------|----------|-------|----------------------------|
--2--4----|--6----|--2--4----|--6----|--4--4--4--4--4--4--4--4----|
--2--4----|--6----|--2--4----|--6----|--4--4--4--4--4--4--4--4----|
--0--2----|--4----|--0--2----|--4----|--2--2--2--2--2--2--2--2----|

                               ^  v  ^  v  ^  v  ^  v
----------------------------||---------------------------|
----------------------------||---------------------------|
----------------------------||o--------------------------|
--4--4--4--4--4--4--4--4----||o9--9--9--9--9--9--9--9----|
--4--4--4--4--4--4--4--4----||-9--9--9--9--9--9--9--9----|
--2--2--2--2--2--2--2--2----||-7--7--7--7--7--7--7--7----|

  ^  v  ^  v  ^  v  ^  v       ^  v  ^  v  ^  v  ^  v
----------------------------|----------------------------|
----------------------------|----------------------------|
----------------------------|----------------------------|
--9--9--9--9--9--9--9--9----|--6--6--6--6--6--6--6--6----|
--9--9--9--9--9--9--9--9----|--6--6--6--6--6--6--6--6----|
--7--7--7--7--7--6--6--6----|--4--4--4--4--4--4--4--4----|

  ^  v  ^  v  ^  v  ^  v       ^  v  ^  v  ^  v  ^  v
----------------------------|----------------------------|
----------------------------|----------------------------|
----------------------------|--9--9--9--9--9--9--9--9----|
--6--6--6--6--6--9--9--9----|--9--9--9--9--9--9--9--9----|
--6--6--6--6--6--9--9--9----|--7--7--7--7--7--7--7--7----|
--4--4--4--4--4--7--7--7----|----------------------------|

  ^  v  ^  v  ^  v  ^  v       ^  v  ^  v  ^  v  ^  v
----------------------------|----------------------------|
----------------------------|----------------------------|
--9--9--9--9--9--9--9--9----|----------------------------|
--9--9--9--9--9--9--9--9----|--9--9--9--9--9--9--9--9----|
--7--7--7--7--7--7--7--7----|--9--9--9--9--9--9--9--9----|
----------------------------|--7--7--7--7--7--7--7--7----|

  ^  v
---------------------------||-------|-------||
---------------------------||-------|-------||
--------9--------9L-------o||--9L---|--9----||
--9--9--9--------9L-------o||--9L---|--9----||
--9--9--7--------7L--------||--7L---|--7----||
--7--7---------------------||-------|-------||
comments
We did not receive enough feedback on this tab! Please rate:
print report bad tab
1 2 3 4 5
1 comment total.
0 reply
metalhead601 wrote on August 19 2013, 11:52 pm

No solo........

I want to post or [tab]
guest
You may want to rate the tab now too:
select rating
Please do not post tabs as comments. Select "correction" instead!