Oops, an error
Loading. Please wait.

Hesitate Tab

version 6
version 6
5,021 views 6 this week
no commentswrite comment
1 2 3 4 5
accurate
x 4
add to favorites
launch autoscroll
font size
0
reset
how to read this tab
guitar tuner
Tab Pro tools
  • play this tab
  • loop segment
  • change instrument
  • show fretboard
  • metronome
×
Best way to learn
"Hesitate"
Autoscroll
slow
fast
+/-
esc
set tempo
stop
Contributor
Difficulty
Tuning
novice
C# G# C# F# A# D#
hey this is Dan, this is my first guitar tab post, so if I messed up, notify me, though 
Im pretty sure I got this right... :P
tuning: Drop C Sharp (I know you can play it in a variety of tunings, but if u want it 
easy, this is the way to go)

p = Pull-off
b = bend

(number 1)

D#|------------------|
A#|--0-----0---0-----|
F#|--4-----6---8-----|  x2
C#|------------------|
G#|------------------|
D#|------------------|

D#|----------------------------------0-----------------------------------|
A#|--0-----0--0--0---0---0-0---0----0------------------------------------|
F#|--4-----6--8----3---3-----3-----3-------------------------------------|
C#|-------------------------------4--------------------------------------|
G#|----------------------------------------------------------------------|
C#|----------------------------------------------------------------------|

(number 2)

D#|-----------------------------------------------------------------|
A#|-----------------------------------------------------------------|
F#|---------------------------------------------4-------------------|
C#|-------2-----2---------4-----6---6-----2---4-------4---4---------|
G#|-----2-----2-----2---4-----6---6-----2---2-------4---------------|
C#|-----------------------------------------------------------------|

D#|--------------------------------------|
A#|--------------------------------------|
F#|--------------------------------------|
C#|---1-----1----1-----2-----------------|
G#|-1-----1-----1--1---2-----------------|
C#|--------------------------------------|


Chorus

D#|---------------------------------------------------|
A#|---------------------------------------------------|
F#|---------------------------------------------------|
C#|-9999999-888--12--13-13--9---13--------------------|     x2
G#|-9999999-888--12--13-13--9---13--------------------|
C#|-9999999-888--12--13-13--9---13--------------------|


back to number 1

back to number 2

back to Chorus



SOLO TIMEEE!!! lol


D#|-12p11----------------------12p11---------------------------------|
A#|------12-------------------------12-------------------------------|
F#|--------11---9-8-9-11-9-8----------11--9-8-9--11-13-11--9-8-9-----|
C#|------------------------------------------------------------------|
G#|------------------------------------------------------------------|
C#|------------------------------------------------------------------|

(cont.)
D#|-12p11--------------------------------------------------------|
A#|------12-------------------12b-12--12-11-11b------------------|
F#|--------11--9-8-9-11-9-8--------------------------------------|
C#|--------------------------------------------------------------|
G#|--------------------------------------------------------------|
C#|--------------------------------------------------------------|





D#------------------------------------------------------------|
A#------------------------------------------------------------|
F#------------------------------------------------------------|
C#-2-2--4--6---2-2--4--6----8--8------------------------------|
G#-2-2--4--6---2-2--4--6----8--8------------------------------|
C#-2-2--4--6---2-2--4--6----8--8------------------------------|



then they do the chorus twice



Thank you, peepz. :P
comments
print report bad tab
I want to post or [tab]
guest
You may want to rate the tab now too:
select rating
Please do not post tabs as comments. Select "correction" instead!