Oops, an error
Loading. Please wait.

Idle Hands Tab

version 2
version 2

Whole song

Interactive

1,439 views 3 this week
1 commentread comment
1 2 3 4 5
please rate
add to favorites
launch autoscroll
font size
0
reset
how to read this tab
guitar tuner
Tab Pro tools
  • play this tab
  • loop segment
  • change instrument
  • show fretboard
  • metronome
Autoscroll
slow
fast
+/-
esc
set tempo
stop
Contributor
Song: Idle Hands
Artist: Stone Sour
Album: Stone Sour
Tabbed: Gary666  (garymccormick123@hotmail.com)(www.freewebs.com/gaznmat) 

Tuning: B F# B E G# C#

PM - Palm mute
\ - Slide down
~ - vibrato

Intro
|------------------------------------------------------------|
|------------------------------------------------------------|
|-5-7-7-7-5-7-8-------------------7-7-5-7-3------------------| x2
|-5-7-7-7-5-7-8--5-7-7-6----------7-7-5-7-3--------------5-4-|
|-3-5-5-5-3-5-6-----------6-5-5~--5-5-3-5-1--0-5-4-5-4-0-----|
|------------------------------------------------------------|
PM                                           - - - - - -


Verse
|--------------------------------------------------------------|
|--------------------------------------------------------------|
|--------------------------------------------------------------| x2
|----0-0-0-----------------------0-0-0-------------------------|
|----0-0-0-----------------------0-0-0-------------------------|
|-0--0-0-0-1-0--0-0--0-1-0-3--0--0-0-0-1-0--0-0--0-3-3-3-1-1-1-|
PM   - - -                       - - -             - - - - - -


|--------------------------------------------------------|
|--------------------------------------------------------|
|--------------------------------------------------------| x2
|-0-0-0-0---------------------0-0-0-0------------0-3-1-0-|
|-0-0-0-0---------------------0-0-0-0------------0-3-1-0-|
|-0-0-0-0--1-0--0-0--0-1-0-3--0-0-0-0--1-0--0-0--0-3-1-0-|
PM- - - -                     - - - -


Pre chorus
|---------------|     |-------------|
|---------------|     |-------------|
|---------------| x2  |-------------| x1
|-0---3---6---1-|     |-6-0-0-0-----|
|-0---3---6---1-|     |-6-0-0-0-----|
|-0-------------|     |-6-0-0-0-1-0-|
PM                        - - -


Bridge
|------------|      |--------------------------|     |-----|
|------------|      |--------------------------|     |-----|
|------------| x1   |--------------------------| x3  |-----| x1
|-0-0-0------|      |-0-0-0--0-0-0--0-0-0------|     |--6--|
|-0-0-0------|      |-0-0-0--0-0-0--0-0-0------|     |--6--|
|-0-0-0--1-0-|      |-0-0-0--0-0-0--0-0-0--1-0-|     |--6--|
PM- -                 - -    - -    - -


|------------|      |--------------------------|     |--------|
|------------|      |--------------------------|     |--------|
|------------| x1   |--------------------------| x3  |--------| x1 (let ring 
|-0-0-0------|      |-0-0-0--0-0-0--0-0-0------|     |-6-0--0-|last note)
|-0-0-0------|      |-0-0-0--0-0-0--0-0-0------|     |-6-0--0-|
|-0-0-0--1-0-|      |-0-0-0--0-0-0--0-0-0--1-0-|     |-6-0--0-|
PM- -                 - -    - -    - -


Verse
|--------------------------------------------------------------|
|--------------------------------------------------------------|
|--------------------------------------------------------------| x2
|----0-0-0-----------------------0-0-0-------------------------|
|----0-0-0-----------------------0-0-0-------------------------|
|-0--0-0-0-1-0--0-0--0-1-0-3--0--0-0-0-1-0--0-0--0-3-3-3-1-1-1-|
PM   - - -                       - - -             - - - - - -


|--------------------------------------------------------|
|--------------------------------------------------------|
|--------------------------------------------------------| x2
|-0-0-0-0---------------------0-0-0-0------------0-3-1-0-|
|-0-0-0-0---------------------0-0-0-0------------0-3-1-0-|
|-0-0-0-0--1-0--0-0--0-1-0-3--0-0-0-0--1-0--0-0--0-3-1-0-|
PM- - - -                     - - - -


Pre chorus
|---------------|     |-------------|
|---------------|     |-------------|
|---------------| x2  |-------------| x1
|-0---3---6---1-|     |-6-0-0-0-----|
|-0---3---6---1-|     |-6-0-0-0-----|
|-0-------------|     |-6-0-0-0-1-0-|
PM                        - - -


Chorus
|-------------------------------------------------|
|-------------------------------------------------|
|-7-7-7-7-7-7-------------------------------------| x2
|-7-7-7-7-7-7-3-3-3-3-3-3-1-1-1-1-1-1-0-0-0-0-0-0-|
|-5-5-5-5-5-5-3-3-3-3-3-3-1-1-1-1-1-1-0-0-0-0-0-0-|
|-------------3-3-3-3-3-3-1-1-1-1-1-1-0-0-0-0-0-0-|


|---------------------------------|       |-----|
|---------------------------------|       |-----|
|---------------------------------| x2    |-----| x1
|-1-0-2-0-1-0-3-0-1-0-2-0-1-0-3\2-|       |--0--|
|-1-0-2-0-1-0-3-0-1-0-2-0-1-0-3\2-|       |--0--|
|-1-0-2-0-1-0-3-0-1-0-2-0-1-0-3\2-|       |--0--|
PM- - - - - - - - - - - - - -


|------------------------------------------------------------|     |-----|
|------------------------------------------------------------|     |-----|
|-5-7-7-7-5-7-8-------------------7-7-5-7-3------------------| x2  |-----| 
|-5-7-7-7-5-7-8--5-7-7-6----------7-7-5-7-3--------------5-4-|     |--0--|
|-3-5-5-5-3-5-6-----------6-5-5~--5-5-3-5-1--0-5-4-5-4-0-----|     |--0--|
|------------------------------------------------------------|     |--0--|
                                                                   x1 (let ring)

Verse
|--------------------------------------------------------------|
|--------------------------------------------------------------|
|--------------------------------------------------------------| x2
|----0-0-0-----------------------0-0-0-------------------------|
|----0-0-0-----------------------0-0-0-------------------------|
|-0--0-0-0-1-0--0-0--0-1-0-3--0--0-0-0-1-0--0-0--0-3-3-3-1-1-1-|
PM   - - -                       - - -             - - - - - -


|--------------------------------------------------------|
|--------------------------------------------------------|
|--------------------------------------------------------| x2
|-0-0-0-0---------------------0-0-0-0------------0-3-1-0-|
|-0-0-0-0---------------------0-0-0-0------------0-3-1-0-|
|-0-0-0-0--1-0--0-0--0-1-0-3--0-0-0-0--1-0--0-0--0-3-1-0-|
PM- - - -                     - - - -


Pre chorus
|---------------|     |-------------|
|---------------|     |-------------|
|---------------| x2  |-------------| x1
|-0---3---6---1-|     |-6-0-0-0-----|
|-0---3---6---1-|     |-6-0-0-0-----|
|-0-------------|     |-6-0-0-0-1-0-|
PM                        - - -



Chorus
|-------------------------------------------------|
|-------------------------------------------------|
|-7-7-7-7-7-7-------------------------------------| x2
|-7-7-7-7-7-7-3-3-3-3-3-3-1-1-1-1-1-1-0-0-0-0-0-0-|
|-5-5-5-5-5-5-3-3-3-3-3-3-1-1-1-1-1-1-0-0-0-0-0-0-|
|-------------3-3-3-3-3-3-1-1-1-1-1-1-0-0-0-0-0-0-|


|---------------------------------|       |-----|
|---------------------------------|       |-----|
|---------------------------------| x2    |-----| x1
|-1-0-2-0-1-0-3-0-1-0-2-0-1-0-3\2-|       |--0--|
|-1-0-2-0-1-0-3-0-1-0-2-0-1-0-3\2-|       |--0--|
|-1-0-2-0-1-0-3-0-1-0-2-0-1-0-3\2-|       |--0--|
PM- - - - - - - - - - - - - -


Outro
|------------------------------------------------------------|
|------------------------------------------------------------|
|-5-7-7-7-5-7-8-------------------7-7-5-7-3------------------| x2
|-5-7-7-7-5-7-8--5-7-7-6----------7-7-5-7-3--------------5-4-|
|-3-5-5-5-3-5-6-----------6-5-5~--5-5-3-5-1--0-5-4-5-4-0-----|
|------------------------------------------------------------|
comments
We did not receive enough feedback on this tab! Please rate:
print report bad tab
1 2 3 4 5
1 comment total.
0 reply
hellsdefender wrote on October 16 2007, 06:10 am

damn good tab you ****ing ROCK man relly awsome tab on a awsome song!

I want to post or [tab]
guest
You may want to rate the tab now too:
select rating
Please do not post tabs as comments. Select "correction" instead!