Oops, an error
Loading. Please wait.

Imperfect Tab

version 1
version 1

Solo

Whole song

Interactive

6,304 views 3 this week
1 commentread comment
1 2 3 4 5
please rate
add to favorites
launch autoscroll
font size
0
reset
how to read this tab
guitar tuner
Autoscroll
slow
fast
+/-
esc
set tempo
stop
Help us to improve Ultimate-Guitar.com Take our survey!
×
Difficulty
novice
|------------------------------------------------------------------------|
|------------------------------------------------------------------------|
|-15b17~---------------------15b17r15-13-15-b17r15-----------------------|
|--------------------------------------------------13~~------------------|
|------------------------------------------------------------------------|
|------------------------------------------------------------------------|

|------------------------------------------------------------------------|
|------------------------------------------------------------------------|
|-17b19r17-15-13----13--15-17b1917-15-13---------------------------------|
|----------------15----------------------16~~----------------------------|
|------------------------------------------------------------------------|
|------------------------------------------------------------------------|

|------------------------------------------------------------------------|
|------------------------------------------------------------------------|
|----------13-15-17-b19r17b19r17-15-13-11-13-11-13-11~~~-----------------|
|----13-15---------------------------------------------------------------|
|-15---------------------------------------------------------------------|
|------------------------------------------------------------------------|
comments
We did not receive enough feedback on this tab! Please rate:
print report bad tab
1 2 3 4 5
1 comment total.
0 reply
MyNameIsMaze 11 wrote on April 16 2013, 02:35 pm

that's too far down the G string man


|---------6h8~---6h8p6-66h8p6~------------------------------------------|
|---------------------9--------4~---------------------------------------|
|-----------------------------------------------------------------------|
|-----------------------------------------------------------------------|
|-----------------------------------------------------------------------|
|-----------------------------------------------------------------------|

|---------9h11p9-----------9h11p9---------------------------------------|
|---------------11-9-7-9-11------11-9-7~--------------------------------|
|-----------------------------------------------------------------------|
|-----------------------------------------------------------------------|
|-----------------------------------------------------------------------|
|-----------------------------------------------------------------------|

|--------------9h11p9h11p9----------------------------------------------|
|--------7h9-11-----------11p9-7h9p7h9p7~-------------------------------|
|-----6h8---------------------------------------------------------------|
|-----------------------------------------------------------------------|
|-----------------------------------------------------------------------|
|-----------------------------------------------------------------------|


i guess you can play most of it without the hammer ons and pull offs if you're using acoustic guitars, but its better if you use an electric guitar

* h = hammer on
* p = pull off
* ~ = let it ring

I want to post or [tab]
guest
You may want to rate the tab now too:
select rating
Please do not post tabs as comments. Select "correction" instead!