Oops, an error
Loading. Please wait.

Inhale Tab

version 2
version 2
12,496 views 21 this week
7 commentsread comments
1 2 3 4 5
accurate
x 11
add to favorites
launch autoscroll
font size
0
reset
how to read this tab
guitar tuner
Autoscroll
slow
fast
+/-
esc
set tempo
stop
Help us to improve Ultimate-Guitar.com Take our survey!
×
Author
Stone Sour - Inhale
Album: Stone Sour
Tuning: B F# B E Ab C#
Tabbed By: Dean K. (projectwyze13@hotmail.com)

Intro/Chous
 C#|----------
 Ab|----------
 E |----------
 B |0-7-6----3    
 F#|------7---
 B |----------

 Riff 2
 C#|---------
 Ab|---------
 E |---------
 B |0-7-6-2-3
 F#|0-7-6-2-3  
 B |0-7-6-2-3

 Verse
 C#|-------------------------------------------
 Ab|-------------------------------------------
 E |7--7-7-7-3-3-3----7----7-7-7-3-3-3-5-5-7---
 B |7--7-7--------7-7-7----7-7-7-----------7-(5)
 F#|5--5-5------------5----5-5-5-----------5-(5) () Only Second Time
 B |-----------------------------------------(5)  
                                              P.M.

   END RIFF
 C#|----------------------
 Ab|----------------------
 E |----------------------
 B |9-9-9-9--11-11-11-11-5
 F#|9-9-9-9--11-11-11-11-5       
 B |9-9-9-9--11-11-11-11-5


 SONG ORDER
INTRO/CHORUS X 6
RIFF 2       X 4
VERSE        X 2
INTRO/CHORUS X 8
VERSE        X 2
INTRO/CHORUS X 8
END RIFF     X 6  
INTRO/CHORUS X 16
RIFF 2       X 4
Suggest correction
What's this?
You can suggest a correction to this tab. Community and Mods will review your correction and vote to approve or reject it.
comments
print report bad tab
7 comments total. Showing first comments.
0 reply
creed fan 4 0 wrote on November 6 2002, 12:00 am

This tab is perfect. Great job.

0 reply
Killa4Rilla 23 wrote on April 6 2003, 12:00 am

if i didnt know better i would say that this is the tab wrote by that kid from denmark, just not as good. his intro was right. theres a slide in the intro that is extremely hard to miss, plus you got the second riff right, so i dont see how you couldve possibly messed up on the intro, but you did, so here it goes...

Intro
|--------------
|--------------
|--------------
|0--7--6/2--3-- X 6
|--------------
|--------------

thats pretty much it for now, good job though

0 reply
slipknotrulz14 17 wrote on April 6 2003, 12:00 am

Ok....The intro/chorus, Riff 2, and End Riff is 1 fret too high. so play intro/chorus for an example like:
C# -----------
Ab -----------
E -----------
B 0-5-4-----2
F# ------6----
B -----------
Just move one fret lower on every note then you go the whole song.

guest
You may want to rate the tab now too:
select rating
Please do not post tabs as comments. Select "correction" instead!