Oops, an error
Loading. Please wait.

Inhale Tab

version 3
version 3
10,708 views 15 this week
no commentswrite comment
1 2 3 4 5
accurate
x 3
add to favorites
launch autoscroll
font size
0
reset
how to read this tab
guitar tuner
Tab Pro tools
  • play this tab
  • loop segment
  • change instrument
  • show fretboard
  • metronome
Autoscroll
slow
fast
+/-
esc
set tempo
stop
Stone Sour - Inhale
Album: Stone Sour
Tuning: B F# B E Ab C#

Intro/Chous
 C#|----------
 Ab|----------
 E |----------
 B |0-7-6-2--3    
 F#|----------
 B |----------

 Riff 2
 C#|---------
 Ab|---------
 E |---------
 B |0-7-6-2-3
 F#|0-7-6-2-3  
 B |0-7-6-2-3

 Verse
 C#|-------------------------------------------
 Ab|-------------------------------------------
 E |7--7-7-7-3-3-3----7----7-7-7-3-3-3-5-5-7---
 B |7--7-7--------7-7-7----7-7-7-----------7-(5)
 F#|5--5-5------------5----5-5-5-----------5-(5) () Only Second Time
 B |-----------------------------------------(5)  
                                              P.M.

   END RIFF
 C#|----------------------
 Ab|----------------------
 E |----------------------
 B |9-9-9-9--11-11-11-11-5
 F#|9-9-9-9--11-11-11-11-5       
 B |9-9-9-9--11-11-11-11-5


 SONG ORDER
INTRO/CHORUS X 6
RIFF 2       X 4
VERSE        X 2
INTRO/CHORUS X 8
VERSE        X 2
INTRO/CHORUS X 8
END RIFF     X 6  
INTRO/CHORUS X 16
RIFF 2       X 4
comments
We did not receive enough feedback on this tab! Please rate:
print report bad tab
1 2 3 4 5
I want to post or [tab]
guest
You may want to rate the tab now too:
select rating
Please do not post tabs as comments. Select "correction" instead!