Oops, an error
Loading. Please wait.

Sillyworld bass

version 1
version 1

Whole song

Interactive

3,349 views 3 this week
2 commentsread comments
1 2 3 4 5
1 last vote to show rating
add to favorites
×
Save as Personal and add changes to this tab that will be seen only by you. Learn more ›
×
You can save this tab as Personal to edit and correct it or add notes. All changes will be seen only by you. Learn more »
launch autoscroll
font size
0
reset
guitar tuner
edit
Autoscroll
slow
fast
+/-
esc
set tempo
stop
Author
----------------------------------------------------------------------------
                             Sillyworld-Stone Sour
----------------------------------------------------------------------------


Tuning: BEAD

No bass in intro
Bass comes in at 00:25

This is my second tab. It may be a little off cos im new.

(00:25)Verse Pt.1 x4
D|-------------------------------|
A|-------------------------------|  I think This Is Right
E|-------------------------------|
B|-3~--3-3/12~-----3~--12-12\3~--|

(00:44)Verse Pt.2
D|-------------|
A|-------------|
E|-------------|
B|-3~~-1~~--33-|

(00:51)Verse Pt.1 x4
(01:09)Verse Pt.2

(01:17)Chorus x2
D|----------------------------------------------|
A|----------------------------------------------|
E|----------------55555555-33333333-1-3-5-------|
B|-33333333-56789-------------------------3-----|

(01:41)Post Chorus 1
D|---------------------------------|
A|---------------------------------|
E|---------------------------------|
B|-8-10-8-10-8-8-10-8-10-8-10-8-10-|

D|------------------------|
A|------------------------|
E|------------------------|
B|6-8-6-8-6-6-8-6-8-6-8-6-|

D|------------------------|
A|------------------------|
E|------------------------|
B|3-5-3-5-3-3-5-3-5-3-5-3-|

D|-----------------------|
A|-----------------------|
E|-----------------------|
B|-11111-11111-11111-111-|

(01:54)Verse Pt.1 x3
(02:12)Verse Pt.2

(02:20)Chorus x2

(2:43)Post Chorus 2 x4
D|-------------------------------------|
A|-------------------------------------|
E|-------------------------------------|
B|-77777777-55555555-33333333-11111111-|

Play Post-Chorus twice during solo

Its probably wrong cos ive only been playing it like this for a couple of days. Any 
for improvement please e-mail me.

| /  slide up
| \  slide down
| h  hammer-on
| p  pull-off
| ~  vibrato
| +  harmonic
| x  Mute note
============================

            
            
Suggest correction
Creating personal tab
Creating personal tab
You can edit any tab online and save it as your Personal.

You can edit, replace or remove any tab part or add personal notes – all changes will be seen only by you.

Personal tabs can be accessed anytime from any device, even offline.
Learn more »
Give kudos to tab author, rate the tab!
1 2 3 4 5
comments
print report bad tab
2 comments total.
0 reply
Satan Man 1,286 Nov 07, 2006 08:13 AM

RATE THIS DAMN TAB!!! Ta

0 reply
nun101 10 Dec 20, 2007 12:18 PM

the post chorusis wrong i think this sounds
better
G#|--------------------------------------------------------
Eb|666666666666644444444444422222222222222111111111
111-----
it also seems easer (and better sounding) to play it in Eb insted of B and the Chorus then becomes


G#|-----------------555555555555555--3333333333333--2---3---5-----
Eb|000000000000000------------------------------
--------------3---

guest
You may want to rate the tab now too:
select rating
Wanna post a correction for this tab? Suggest correction