Oops, an error
Loading. Please wait.

Socio bass

version 1
version 1

Whole song

Interactive

7,500 views 6 this week
4 commentsread comments
1 2 3 4 5
x 4
add to favorites
×
Save as Personal and add changes to this tab that will be seen only by you. Learn more ›
×
You can save this tab as Personal to edit and correct it or add notes. All changes will be seen only by you. Learn more »
launch autoscroll
font size
0
reset
guitar tuner
backing track
0:00
0:00
edit
Autoscroll
slow
fast
+/-
esc
set tempo
stop
Author
Artist: Stone Sour
Song: Socio
Tuning: Standard 4 string

G|---------|
D|---------|   
A|---------|
E|-22-2\---|

G|-----------------|
D|-----------------|   
A|-------------02--|   
E|-22---22---24----|

G|-----------------|
D|-----------------|   
A|-------------02--|   
E|-22---22---24----|

G|-----------------|
D|-----------------|   
A|-------------02--|   
E|-22---22---24----|

G|-----------------|
D|-----------------|   
A|-------------02--|   
E|-22---22---24----|

G|----------|
D|----------|   
A|----------|   
E|-22---22--|

G|-----------------|
D|-----------------|   
A|-------------02--|   
E|-22---22---24----|

G|-----------------|
D|-----------------|   
A|-------------02--|   
E|-22---22---24----|

G|-----------------|
D|-----------------|   
A|-------------02--|   
E|-22---22---24----|

G|-----------------|
D|-----------------|   
A|-------------02--|   
E|-22---22---24----|

G|----------------------------------------|
D|----------------------------------------|
A|-----------------------------------02---|
E|-10-10-10-10-5-5-5-5-7-7-7-7-2-2-24-----|

G|----------------------------------------|
D|----------------------------------------|
A|-----------------------------------02---|
E|-10-10-10-10-5-5-5-5-7-7-7-7-2-2-24-----|

G|-----------------|
D|-----------------|   
A|-------------02--|   
E|-22---22---24----|

G|-----------------|
D|-----------------|   
A|-------------02--|   
E|-22---22---24----|

G|-----------------|
D|-----------------|   
A|-------------02--|   
E|-22---22---24----|

G|-----------------|
D|-----------------|   
A|-------------02--|   
E|-22---22---24----|

G|----------|
D|----------|   
A|----------|   
E|-22---22--|

G|-----------------|
D|-----------------|   
A|-------------02--|   
E|-22---22---24----|

G|-----------------|
D|-----------------|   
A|-------------02--|   
E|-22---22---24----|
    
G|----------------------------------------|
D|----------------------------------------|
A|-----------------------------------02---|
E|-10-10-10-10-5-5-5-5-7-7-7-7-2-2-24-----|

G|----------------------------------------|
D|----------------------------------------|
A|-----------------------------------02---|
E|-10-10-10-10-5-5-5-5-7-7-7-7-2-2-24-----|

G|-----------------------------------------------|
D|-----------------------------------------------|
A|-------------------------------------------02--|
E|-1010101010101010-55555555-77777777-2222-24----|

G|-----------------------------------------------|
D|-----------------------------------------------|
A|-------------------------------------------02--|
E|-1010101010101010-55555555-77777777-2222-24----|

G|-----------------|
D|-----------------|   
A|------------02---|
E|2~--/10^--24-----|

G|-----------------|
D|-----------------|   
A|------------02---|
E|2~--/10^--24-----|

G|-----------------|
D|-----------------|   
A|------------02---|
E|2~--/10^--24-----|

G|-----------------|
D|-----------------|   
A|------------02---|
E|2~--/10^--24-----|

G|-------|-------|-------|-------|-------|-------|-------|
D|-------|-------|-------|-------|-------|-------|-------|
A|---02--|----02-|----02-|----02-|----02-|----02-|----02-|
E|-24----|-24----|-24----|-24----|-24----|-24----|-24----|
   
G|-------|-------|-------|-------|-------|-------|-------|-------|
D|-------|-------|-------|-------|-------|-------|-------|-------|
A|-20----|----02-|----02-|----02-|----02-|----02-|----02-|-20----|
E|----42-|-24----|-24----|-24----|-24----|-24----|-24----|----42-|    

G|-----------------------------------------|
D|-----------------------------------------|
A|------------------------------------02---|
E|-10-10-10-10-5-5-5-5-7-7-7-7-2-2-24------|

G|------------------------------------------------|
D|------------------------------------------------|
A|--------------------------------------------02--|
E|-1010101010101010-55555555-77777777-2222-24-----|

G|------------------------------------------------|
D|------------------------------------------------|
A|--------------------------------------------02--|
E|-1010101010101010-55555555-77777777-2222-24-----|

G|------------------------------------------------|
D|------------------------------------------------|
A|--------------------------------------------02--|
E|-1010101010101010-55555555-77777777-2222-24-----|
Suggest correction
Creating personal tab
Creating personal tab
You can edit any tab online and save it as your Personal.

You can edit, replace or remove any tab part or add personal notes – all changes will be seen only by you.

Personal tabs can be accessed anytime from any device, even offline.
Learn more »
comments
print report bad tab
4 comments total. Showing first comments.
0 reply
cosmicsoul07 160 Aug 29, 2006 08:57 AM

dude all stone sour bass is in drop b...

0 reply
Satan Man 1,286 Aug 29, 2006 09:25 AM

ye but if u listen 2 the cd an play it it sounds right

0 reply
Satan Man 1,286 Sep 23, 2006 02:04 AM

Ive typed the chorus in rong. its 10 not 9

guest
You may want to rate the tab now too:
select rating
Wanna post a correction for this tab? Suggest correction